» » »

Sacred Life, Fatality Tabs (ver.1)

Artists:  A B C D E F G H I J K L M N O P Q R S T U V W X Y Z # 

Fatality Tabs (ver.1)

Sacred Life Tabs
Rating:
0/5 (0 votes)
Fatality lessons Tabs too difficult? Try these video lessons and learn fast
                

down one step

picking is clean
chords with distortion

1 bar-verse
2 bar-chorus
3 bar-bridge

-------|------|------|--------------------------------------------------------|
-------|-----1|------|--------------------------------------------------------|
------0|--2---|-----0|--------------------------------------------------------|
---2---|-2--2-|--0---|--------------------------------------------------------|
--2--2-|0--0--|-2--2-|--------------------------------------------------------|
-0--0--|------|3--3--|--------------------------------------------------------|


---------|--------|--------|--------|-----------------------------------------|
---------|--------|--------|--------|-----------------------------------------|
---------|--------|--------|--------|-----------------------------------------|
-22222222|55555555|99999999|77777777|-----------------------------------------|
-22222222|55555555|99999999|77777777|-----------------------------------------|
-00000000|33333333|77777777|55555555|-----------------------------------------|


---------|00000000|--------|--------------------------------------------------|
-44444444|00000000|--------|--------------------------------------------------|
-44444444|00000000|44444444|--------------------------------------------------|
-44444444|22222222|55555555|--------------------------------------------------|
-22222222|22222222|55555555|--------------------------------------------------|
---------|00000000|33333333|--------------------------------------------------|
            

comments powered by Disqus
↑ Back to top | Sacred Life Tabs for Fatality. Lyrics for acoustic guitar and electric guitar. Tablatures and chords are parodies/interpretations of the original songs. You may use it for private study, scholarship, research or language learning purposes only