» » »

Sacred Life, Change Tabs (ver.1)

Artists:  A B C D E F G H I J K L M N O P Q R S T U V W X Y Z # 

Change Tabs (ver.1)

Sacred Life Tabs
 Rating:
4/5 (4 votes)
Change lessons Tabs too difficult? Try these video lessons and learn fast
1
                

 RYTHM FIGURE1(GUITAR1) CLEAN TONE
E|-3-3-3-3-3-3-3-3-3-3-3-0-0-0-3-3-3-3-2-2-2------------------------------------|
B|-3-3-3-3-3-3-3-3-3-3-3-3-3-3-3-3-3-3-0-0-0------------------------------------|
G|-0-0-0-0-0-0-0-0-0-0-0-2-2-2-2-2-2-2-0-0-0------------------------------------|
D|-0-0-0-0-2-2-2-0-0-0-2-0-0-0-0-0-0-0-0-0-0------------------------------------|
A|-2-2-2-2-3-3-3-2-2-2-3--------------------------------------------------------|
E|-3-3-3-3-------3-3-3----------------------------------------------------------|

  RIFF .A.(GUITAR2) LIGHT DISTORTION
E|------------------------------------------------------------------------------|
B|---------------2-2-2-2-2-2-2-2------------------------------------------------|
G|-2-2-2-2-2-2-2-2-2-2-2-2-2-2-2-4-4-4-4-4-4-4-4-7-7-7-7-7-7-7-7----------------|
D|-3-3-3-3-3-3-3-2-2-2-2-2-2-2-2-5-5-5-5-5-5-5-5-8-8-8-8-8-8-8-8----------------|
A|-3-3-3-3-3-3-3-0-0-0-0-0-0-0-0-5-5-5-5-5-5-5-5-8-8-8-8-8-8-8-8----------------|
E|-1-1-1-1-1-1-1-----------------3-3-3-3-3-3-3-3-6-6-6-6-6-6-6-6----------------|

RYTHMFIGURE2(GUITAR1)      RIFF .B.(GUITAR2)
E|------------------|-----------------------------------------------------------|
B|------------------|-----------------1-1-1-1-1-1-1-1-3-3-3-3-3-3-3-3-----------|
G|-------5-5-9-9-9--|-1-1-1-1-1-1-1-1-2-2-2-2-2-2-2-2-5-5-5-5-5-5-5-5-----------|
D|-3-3-3-5-5-9-9-9--|-3-3-3-3-3-3-3-3-2-2-2-2-2-2-2-2-5-5-5-5-5-5-5-5-----------|
A|-3-3-3-3-3-7-7-7--|-3-3-3-3-3-3-3-3-0-0-0-0-0-0-0-0-3-3-3-3-3-3-3-3-----------|
E|-1-1-1-----7-7-7--|-1-1-1-1-1-1-1-1-------------------------------------------|


E|-----------------|------------------------------------------------------------|
B|-6-6-6-6-6-6-6-6-|------------------------------------------------------------|
G|-8-8-8-8-8-8-8-8-|------------------------------------------------------------|
D|-8-8-8-8-8-8-8-8-|------------------------------------------------------------|
A|-6-6-6-6-6-6-6-6-|------------------------------------------------------------|
E|-----------------|------------------------------------------------------------|

  RYTHM FIGURE3 (GUITAR1)
E|---------3-3-3\---------------------------------------------------------------|
B|---------3-3-3\---------------------------------------------------------------|
G|-5-5-5-5-5-5-5\9-9-9-9\-------------------------------------------------------|
D|-5-5-5-5-5-5-5\9-9-9-9\5-5-5-5-5----------------------------------------------|
A|-3-3-3-3-3-3-3\7-7-7-7\5-5-5-5-5----------------------------------------------|
E|-3-3-3-3-------7-7-7-7\3-3-3-3-3----------------------------------------------|

  RIFF .C. (GUITAR2)
E|------------------------------------------------------------------------------|
B|-------------------------------------------------5-5-5-5-5-5-5-5--------------|
G|-1-1-1-1-1-1-1-1-4-4-4-4-4-4-4-4-6-6-6-6-6-6-6-6-7-7-7-7-7-7-7-7--------------|
D|-2-2-2-2-2-2-2-2-5-5-5-5-5-5-5-5-7-7-7-7-7-7-7-7-7-7-7-7-7-7-7-7--------------|
A|-2-2-2-2-2-2-2-2-5-5-5-5-5-5-5-5-7-7-7-7-7-7-7-7-5-5-5-5-5-5-5-5--------------|
E|-0-0-0-0-0-0-0-0-3-3-3-3-3-3-3-3-5-5-5-5-5-5-5-5-5-5-5-5-5-5-5-5--------------|
            
Submit corrections

comments powered by Disqus
↑ Back to top | Sacred Life Tabs for Change. Lyrics for acoustic guitar and electric guitar. 1 Tablatures and chords are parodies/interpretations of the original songs. You may use it for private study, scholarship, research or language learning purposes only