>
 >
Amulet 1

Amulet 1 Guitar Tabs

Sacksioni H - Amulet 1 chords, tabs, tablatures, lyrics

Guitar lessons | Add/correct | Request | Top 50 tabs Artists:  A B C D E F G H I J K L M N O P Q R S T U V W X Y Z 0-9

Amulet 1 Guitar Tabs – Sacksioni H

CD, Sheet music, Poster

Do you like Amulet 1? Share with your friends now
TabsTabs v2
Mailer: Elm [revision: 70.85]

Hello jamesb,

 Here a little contribution to your tab-archive (It's great (and big too)!!).
 I crunched them to fit on one page.
 Three songs from a (acoustic) guitarist known in Holland.

 I'am interested in anything acoustic jazz-rock / fusion style like
  - lee ritenour
  - larry carlton
  - billy joe walker


                Regards,

         Jaap de Jong,           tel:   (31) 05440-71425
         Nedap N.V.,             fax:   (31) 05440-65232
         7140 AA Groenlo
         Holland

~~~~~~~~~~~~~~~~~~~~~~~~~~~~~~~~~~~~~~~~~~~~~~~~~~~~~~~~~~~~~~~~~~~~~~~~~~~~~~~

Amulet..............................H. Sacksioni

sequence: 1 2 3a 2 3b

part 1:               part 2:
]----------------]    ]2>4---0-2>4>2-0-]------------2>4-]----------------]
]--------------0-]    ]---0-2----------]2--0------------]--------------0-]
]----------------]    ]--------2>4>2-1-]2--1--------2>4-]1---------------]
]----------------]    ]----------------]----------------]---2-------2----]
]----------------]    ]----------------]--------2-------]-----4--2--4----]
]----------------]    ]0---------------]----------------]0---------------]

]------------0---]--------4-------]2---0---7---5---]------------0>2-]
]----------------]4---5---4---4---]1-------5---5---]----------------]
]2---------------]4-------4-------]4-------7---6---]----------------]
]4---------------]6-------3---4---]----------------]----------------]
]2---------------]4---------------]0-------7---7---]----------------]
]----------------]----------------]----------------]----------------]

]4---5---7-5-0---]10--8---7-------]---9-11-12--11--]9-------7---5---]
]----------------]9-------9-------]--------9-------]----9---6-------]
]----------------]10--9---9-------]--------9-------]--------7-------]
]----------------]----------------]----------------]----------------]
]----------------]----10----------]----------------]----------------]
]0---------------]8-----------0---]----------------]----------------]

]4---2---0---0---]2---3->-4->-----]7-----------0---]----------------]
]3---4---1---2---]1---1-------0---]----------------]4---5---4-------]
]5-------4-------]3---2-----------]----------------]4-------4---6---]
]----------------]----------------]----------------]6-------5-------]
]----------------]----------------]----------------]4-------4-------]
]----------------]--------0-------]----------------]----------------]

]7---5---4-------]------------0-2-]
]4---4---5---3---]----------------]
]4---5---6-------]----------------]
]----------------]----------------]
]----------------]----------------]
]--------0---0---]----------------]

part 3a:
]2---0---7---5---]4-----------4---]----------------]
]2-------5---5---]4---4---2---4---]--------------0-]
]4-------7---6---]4---4---2---2---]----------------]
]----------------]----6---4-------]----------------]
]0-------7---7---]4-------2-------]----------------]
]----------------]----------------]----------------]

part 3b:
]2---0---7---5---]4---------------]0---0---0-------]----------------]
]2-------5---5---]4---2-----------]2>4-2---0-------]2->-4>2-0-------]
]4-------7---6---]4---2-----------]----------1-----]2->-4>2-1-------]
]----------------]----4-----------]------------4>2-]----------2-----]
]0-------7---7---]2---------------]----------------]------------4-2-]
]----------------]----------------]----------------]----------------]

]0-----------|---]
]--4---------|---]
]----4-------|---]
]------2-----|---]
]--------2---|---]
]----------0-V---]

~~~~~~~~~~~~~~~~~~~~~~~~~~~~~~~~~~~~~~~~~~~~~~~~~~~~~~~~~~~~~~~~~~~~~~~~~~~~~~~
Here comes the sun.................The Beatles (H. Sacksioni)

sequence: 1 2 3a 2 3b 4 4 5 2 6

part 1:
]----0---]----50--]----0---]----30--]----0---]---030--]----0---]----5-0-]
]--3---3-]--3---3-]--3---3-]--3---3-]---3--3-]--3---3-]---3---2]---2--3-]
]-2-2-2-2]-2-2---2]-2-2-2-2]-2-2---2]--2--2-2]-2-----2]--2---3-]--3---2-]
]0-------]0-------]--------]--------]-0------]--------]-0---0--]-0---0--]
]--------]--------]3-------]3-------]2---2---]2---2---]1---1---]1---1---]
]--------]--------]--------]--------]--------]--------]--------]--------]

part 2:
]--2-02--]--20----]---0----]--------]--2-02--]--20----]--20----]-----0--]
]---3---3]-----3-0]--3--3--]2020----]---3---3]-----3-0]-----3--]2020----]
]-2-----2]-2---2-0]-0---0-0]-----2-0]-2-----2]-2---2-0]-0---0-0]-------0]
]0-----0-]--0---0-]--0---0-]--2--2--]0-----0-]--0---0-]--0---0-]--2---2-]
]--------]0---0---]--------]0---0---]--------]0---0---]--------]0---0---]
]--------]--------]3---3---]--------]--------]--------]3---3---]--------]

]--2-02--]--2-02--]--20-2-0]---0----]--20----]--0--0--]0--0----]--2-02--]
]---3---3]---3----]---0-0-0]--00-3-0]-----3--]-3--3--3]--3-320-]--3-33--]
]-2-----2]-2------]-0-0-0-1]-111-1-1]-2---2-2]4--2--0-]02-----2]--2-22-0]
]0-----0-]--0-----]--0---0-]-2----2-]0-----0-]--------]--------]0--0--0-]
]--------]0-------]--------]2-------]----0---]--------]----0---]--------]
]--------]------02]3---3---]0---0---]--------]--------]--------]--------]

part 3a:          part 3b:          part 4:
]-----0--]        ]-----0--]        ]--------]--------]--2-02--]-----0--]
]2023----]        ]2023----]        ]--1-----]--------]--3-33--]2023----]
]--0----0]        ]--0-----]        ]-2----0-]--0-----]-2-2-2-0]--00----]
]--2---2-]        ]--2---02]        ]3----2--]-0-----0]0-----0-]--2---02]
]0---0---]        ]0----0--]        ]----3---]2----02-]--------]0---0---]
]--------]        ]--------]        ]--------]----3---]--------]--------]

part 5:
]--------]--------]--2-02--]-----0--]3----3--]5--5-5--]--------]
]--1-----]--------]--3-33--]2023-2--]---2----]---2-2--]32---2--]
]-2----0-]--0-----]-2-2-2-0]--00-0-0]--0----0]--22-2-2]---4---2]
]3----2--]-0-----0]0-----0-]--2---2-]-2----2-]-2----2-]--2---2-]
]----3---]2----02-]--------]0---0---]0---0---]0---0---]0---0---]
]--------]----3---]--------]--------]--------]--------]--------]

part 6:
]--0--0--]0--0----]--------]--------]2-^-----]
]03--3--3]--3-32--]--1-----]--0-----]3-|-----]
]---2--0-]02------]-2----0-]--0----0]2-|-----]
]--------]------02]3----2--]-0-----0]0-|-----]
]--------]----0---]----3---]2----02-]0-|-----]
]3--2--0-]02------]--------]----3---]2-|-----]

~~~~~~~~~~~~~~~~~~~~~~~~~~~~~~~~~~~~~~~~~~~~~~~~~~~~~~~~~~~~~~~~~~~~~~~~~~~~~~~
Scarborough Fair......Simon/Garfunkel (H. Sacksioni)

sequence: 1 1 2 3a 4                    h = hamer  f = flageolet
          1 1 2 3b 4 5 6 7a 6 7b        p = pull

part 1:
]--8-----0---]--12----0---]--7-------7-]--5-------5-]
]----0-------]----0-------]----0---0---]----0---0---]
]-9----9---0-]-12---12--0-]-7----7-----]-5----5-----]
]------------]------------]------------]------------]
]0-----------]0-----------]0-----------]0-----------]
]------------]------------]------------]------------]

part 2:
]------------]0-------0---]------------]-----------0]------------]----0---3---]
]------1---1-]------1-----]0-----1-0---]------0-0h3-]1p0---0--1--]------------]
]2---2---2---]----0-----0-]----0-----0-]2---2-----2-]----2-----2-]------0---0-]
]--2-----2---]-0h2--------]--0---2-0---]--2---------]--2---------]--2---------]
]0-----------]3-------3---]------------]0-------0---]0-----------]0-------3---]
]------------]------------]3-----------]------------]------------]------------]

                                            part 3a:          part 3b:
]5-------3---]0---2-------]0-------0---]    ]--------0---]    ]--------0---]
]----5-------]--------3---]------0-----]    ]------0-----]    ]--0---0---0-]
]--5---0---0-]--0---2---2-]----2-----2-]    ]1---1-------]    ]1---2-------]
]------------]----0-------]--2---------]    ]--2---------]    ]------------]
]0-------2---]3-----------]------------]    ]------------]    ]------------]
]------------]------------]0-----------]    ]0-----------]    ]0---2---4---]

part 4:
]5-------5---]3-------0---]0-----------]------------]------3-3---]--------0---]
]----5-------]------1-----]--1-3---1---]0-----1-0---]----1---0---]------1-----]
]--5---5---0-]----0-----0-]-0----0---0-]----0-----0-]0h2-------0-]2---2-----0-]
]------------]-0h2--------]------------]-0h2----0---]--0---------]--0h2-------]
]0-----------]3-------3---]3---2---0---]------------]------------]0-------3---]
]------------]------------]------------]3-----------]3-------3---]------------]

]-232--------]------------]-----------0]------------]
]3---3---1---]0-----1---0-]------0-0h3-]1p0---0--1--]
]------2---0-]----2---0---]2---2-----2-]----2-----2-]
]0-----------]--0---------]--2---------]--2---------]
]--------0---]------------]0-------0---]0-----------]
]------------]3-------3---]------------]------------]

part 5:
]5-------12--]10------8---]7---5---3---]5-^---------]
]5-------12--]10------8---]7---5---3---]0-|---------]
]5-------12--]11------9---]7---5---4---]5-|---------]
]7-------10--]9-------7---]5---0---2---]3-|---------]
]------------]------------]------------]0-|---------]
]------------]------------]------------]--------0---]

part 6:                                     part 7a:          part 7b:
]--8------10-]--12-----10-]--8------7--]    ]--5------7--]    ]------------]
]----0-----0-]----0-----0-]----0-----0-]    ]----0-----0-]    ]------------]
]-9----9---10]-12---12--10]-9----9----7]    ]-5----5----7]    ]-5----------]
]------------]------------]------------]    ]------------]    ]--7f--------]
]0-----------]0-----------]0-----------]    ]0-----------]    ]0-----------]
]--------0---]--------0---]--------0---]    ]--------0---]    ]------------]

~~~~~~~~~~~~~~~~~~~~~~~~~~~~~~~~~~~~~~~~~~~~~~~~~~~~~~~~~~~~~~~~~~~~~~~~~~~~~~~





Comments


Popular Sacksioni H tabs & chords
Amulet Tabs
Blos Tabs
Blos 1 Tabs
Lappenballerina Tabs


Song lyrics



↑ Back to top | Tablatures and chords are parodies/interpretations of the original songs. You may use it for private study, scholarship, research or language learning purposes only
© 2014 AZChords.com Contact us | Privacy policy | DMCA | Add/correct tabs | Request tabs | Top 50 tabs