» » »

En Livstid I Krig Tabs (ver.1)

Artists:  A B C D E F G H I J K L M N O P Q R S T U V W X Y Z # 

En Livstid I Krig Tabs (ver.1)

Sabaton
Rating:
0/5 (0 votes)

Hard to play? Try these video lessons and learn fast.
                Intro

E1|---------------------------------------------------------------|
H2|---------------------------------------------------------------|
G3|-------7-5--5-7-8-7-3-5--8-7-3-h5-3--3-------------------------|
D4|-3/5-8---------------------------------6-5-3--3-5-6-5-(h6-p5)--|
A5|---------------------------------------------------------------|
E6|---------------------------------------------------------------|

E1|------10-8-8 10-11-10-8-6-8--11-10-6-h8-6--6-------------------|
H2|-8-11----------------------------------------9-8-6-8-9-8-------|
G3|---------------------------------------------------------------|
D4|---------------------------------------------------------------|
A5|---------------------------------------------------------------|
E6|---------------------------------------------------------------|

E1|---0-----------------------|
H2|---0-----------------------|
G3|---5-----------------------|
D4|---5-----------------------|
A5|---3-----------------------|
E6|---0-----------------------|



E1|---0----0------------------|
H2|---0----0------------------|
G3|---0----0------------------|
D4|---8----10-----------------|
A5|---8----10-----------------|
E6|---6----8------------------|




C Gis Dis H C
            
Hard to play? Try these video lessons and learn fast. | Correct




comments powered by Disqus
↑ Back to top | Tablatures and chords are parodies/interpretations of the original songs. You may use it for private study, scholarship, research or language learning purposes only