>
 >
Cliffs Of Gallipoli

Cliffs Of Gallipoli Guitar Tabs

Sabaton - Cliffs Of Gallipoli chords, tabs, tablatures, lyrics

Guitar lessons | Add/correct | Request | Top 50 tabs Artists:  A B C D E F G H I J K L M N O P Q R S T U V W X Y Z 0-9

Cliffs Of Gallipoli Guitar Tabs – Sabaton

CD, Sheet music, Poster

Do you like Cliffs Of Gallipoli? Share with your friends now
Tabs
Band: Sabaton

Standard tuning

Legend:
                                        
.       palm mute                       .
h       hammer on                       5       staccato note
p       pull off                        
/       slide up to note                *
\       slide down from note            5       pinch harmonic
x       dead note
~       vibrato


Intro
~~~~~
  1   +   2   +   3   +   4   +     1   +   2   +   3   +   4   +   
|---------------------------------|---------------------------------|
|---------------------------------|---------------------------------|
|---------------------------------|---------------------------------|
|---------------------------------|-----------------2---------------|
|-5-5-5-5-5---3-5-5---5-3---3-5---|-----5-5-5---5-5-------5-----3---|
|---------------------------------|---------------------------------|
  . .         . .     .     .           . .     . .
 

  1   +   2   +   3   +   4   +     1   +   2   +   3   +   4   +   
|---------------------------------|---------------------------------|
|---------------------------------|---------------------------------|
|---------------------------------|---------------------------------|
|---------------------------------|---------------------------------|
|-5---5-5-5---3-5-5---5-3---3-5---|---------*-----------*-----------|
|---------------------------------|-----5---6-------3---5-------1---|
      . .     . .     .     .


  1   +   2   +   3   +   4   + 
|---------------------------------|
|---------------------------------|
|---------------------------------|
|-------------------------2-3-2---|
|---------------------3-5-------5-|
|-3-1-0---------------------------|



  1   +   2   +   3   +   4   +     1   +   2   +   3   +   4   +   
|---------------------------------|---------------------------------|
|---------------------------------|---------------------------------|
|---------------------------------|---------------------------------|
|---------------------------------|-----------------2---------------|
|-5-5-5-5-5---3-5-5---5-3---3-5---|-----5-5-5---5-5-------5-----3---|
|---------------------------------|---------------------------------|
  . .         . .     .     .           . .     . .


  1   +   2   +   3   +   4   +     1   +   2   +   3   +   4   +   
|---------------------------------|---------------------------------|
|---------------------------------|---------------------------------|
|---------------------------------|---------------------------------|
|---------------------------------|---------------------------------|
|-5---5-5-5---3-5-5---5-3---3-5---|---------*-----------*-----------|
|---------------------------------|-----5---6---3--/8---6---5-3h5---|
      . .     . .     .     .


  1   +   2   +   3   +   4   +   
|---------------------------------|
|---------------------------------|
|---------------------------------|
|-------------------------2-3-2---|
|---------------------3-5-------3-|
|-----1---5-3-3~~~----------------|




Verse
~~~~~

|---------------------------------|---------------------------------|
|---------------------------------|---------------------------------|
|---------------------------------|-------------------------------5-|
|---------------------------------|-------------------------------5-|
|-5-------------------------------|-------------------------------3-|
|---------------------------------|---------------------------------|


         "hear them whisper..."            "voices from the other side..."
|---------------------------------|---------------------------------|
|---------------------------------|---------------------------------|
|-7-------------------------------|---------------------------------|
|-7-------------------------------|---------------------------------|
|-5-------------------------------|---------------------------------|
|---------------------------------|---------------------------------|


         "hear them calling, former foes now friends are resting..."
|---------------------------------|---------------------------------|
|---------------------------------|---------------------------------|
|---------------------------------|-2-------2-------3---------------|
|---------------------------------|-2-------0-------3-------3-------|
|---------------------------------|-0-------0-------1-------3-------|
|---------------------------------|-------------------------1-------|


 "side..."
|---------------------------------|
|---------------------------------|
|-5-----------------------------5-|
|-5-----------------------------5-|
|-3-----------------------------3-|
|---------------------------------|


         "they will never..."              "leave our hearts..."
|---------------------------------|---------------------------------|
|---------------------------------|---------------------------------|
|-7-------------------------------|---------------------------------|
|-7-------------------------------|---------------------------------|
|-5-------------------------------|---------------------------------|
|---------------------------------|---------------------------------|


         "live forever... they were far too young to die in such a..."       
|---------------------------------|---------------------------------|
|---------------------------------|---------------------------------|
|---------------------------------|-2-------2-------2---------------|
|---------------------------------|-2-------0-------2-------3-------|
|---------------------------------|-0-------0-------0-------3-------|
|---------------------------------|-----------------0-------1-------|


 "way..."
|---------------------------------|
|---------------------------------|
|-5-------------------------------|
|-5-------------------------------|
|-3-------------------------------|
|---------------------------------|



Bridge
~~~~~~
     "how many wasted lives..."
|---------------------------------|---------------------------------|
|---------------------------------|---------------------------------|
|-7---------------3---------------|-----------------5---------------|
|-7---------------3---------------|-3---------------5---------------|
|-5---------------1---------------|-3---------------3---------------|
|---------------------------------|-1-------------------------------|


         "broken promises, they won't be coming home..."
|---------------------------------|---------------------------------|
|---------------------------------|---------------------------------|
|-7---------------3---------------|-----------------5---------------|
|-7---------------3---------------|-3---------------5---------------|
|-5---------------1---------------|-3---------------3-------1---0---|
|---------------------------------|-1-------------------------------|


     "oh mothers wipe your tears..."
|---------------------------------|---------------------------------|
|---------------------------------|---------------------------------|
|-----------------8---------------|-3-------------------------------|
|-5---------------x---------------|-x---------------3---------------|
|-x---------------6---------------|-1---------------x---------------|
|-3-------------------------------|-----------------1---------------|


     "found their peace at last..."
|---------------------------------|---------------------------------|
|---------------------------------|---------------------------------|
|-----------------8---------------|-3-------------------------------|
|-5---------------x---------------|-x---------------3---------------|
|-x---------------6---------------|-1---------------x---------------|
|-3-------------------------------|-----------------1---------------|


 "and forgive...           and they knew they would die..."
|---------------------------------|---------------------------------|
|---------------------------------|---------------------------------|
|-5-------5-------5-------5-------|-3-------------------------------|
|-5-------5-------5-------5-------|-3-------------------------------|
|-3---3-3-3---3-3-3---3-3-3---3-3-|-1-------------------------------|
|---------------------------------|---------------------------------|
      . .     . .     . .     . .


             "Ga-LLI-     PO-"
|---------------------------------|
|---------------------------------|
|---------------------------------|
|-----------------3-------2-------|
|-----------------3-------2-------|
|-----------------1-------0-------|


Chorus
~~~~~~
 "LI"                                                      "left their..."
  1   +   2   +   3   +   4   +     1   +   2   +   3   +   4   +   
|---------------------------------|---------------------------------|
|---------------------------------|---------------------------------|
|---------------------------------|---------------------------------|
|---------------------------------|-----------------2---------------|
|-5-5-5---5---3-5-5---5-3---3-5---|-----5-5-5---5-5-------5-----3---|
|---------------------------------|---------------------------------|
  . .         . .     .     .           . .     . .

 "letters in the sand..."
  1   +   2   +   3   +   4   +     1   +   2   +   3   +   4   +   
|---------------------------------|---------------------------------|
|---------------------------------|---------------------------------|
|---------------------------------|---------------------------------|
|---------------------------------|---------------------------------|
|-----3-3-3---3-3-5-------*-------|-----*---------------------------|
|---------------------5---6---3---|-3---5---1---1---3-1-0-----------|
      . .     . . 


"waste of life GA-LI-     PO-"
  1   +   2   +   3   +   4   +    
|---------------------------------|
|---------------------------------|
|-3-------------------------------|
|-3---------------3-------2-------|
|-1---------------3-------2-------|
|-----------------1-------0-------|


 "LI..."                                                   "dreams of..."
  1   +   2   +   3   +   4   +     1   +   2   +   3   +   4   +   
|---------------------------------|---------------------------------|
|---------------------------------|---------------------------------|
|---------------------------------|---------------------------------|
|---------------------------------|-----------------2---------------|
|-5-5-5-5-5---3-5-5---5-3---3-5---|-----5-5-5---5-5-------5-----3---|
|---------------------------------|---------------------------------|
  . .         . .     .     .           . .     . .

 "freedom turn to dust..."
  1   +   2   +   3   +   4   +     1   +   2   +   3   +   4   +   
|---------------------------------|---------------------------------|
|---------------------------------|---------------------------------|
|---------------------------------|---------------------------------|
|---------------------------------|---------------------------------|
|-----3-3-3---3-3-5-------*-------|-----*---------------------------|
|---------------------5---6---3---|/8---6---5p3-5~~~----1---5---3-3-|
      . .     . . 


1st ending
  1   +   2   +   3   +   4   +    
|---------------------------------|
|---------------------------------|
|---------------------------------| Then back to Verse, Bridge, Chorus
|-------------------------2-3-2---|
|---------------------3-5-------3-|
|---------------------------------|


2nd ending
  1   +   2   +   3   +   4   +    
|---------------------------------|
|---------------------------------|
|---------------------------------|
|-----------------------0-2-0-----|
|---------------------3-------3-1-|
|---------------------------------|

After which:



Interlude (Tempo change to 7/4 I think)
~~~~~~~~~
  1   +   2   +   3   +   4   +   5   +   6   +   7   +   
|---------------------------------------------------------|
|---------------------------------------------------------|
|---------------------------------------------------------|
|-.-------------.-------------.-------------.-------------|
|-0-----------4-5-----------5-7-----------7-5-----------5-|
|---------------------------------------------------------|

  
  1   +   2   +   3   +   4   +   5   +   6   +   7   +   
|---------------------------------------------------------|
|---------------------------------------------------------|
|---------------------------------------------------------|
|---------------------------------------------------------|
|-.---------------------------.---------------------------|
|-3-------------------------1-3-------------------------3-|



|---------------------------------------------------------|
|---------------------------------------------------------|
|---------------------------------------------------------|
|-.-------------.-------------.-------------.-------------|
|-0-----------4-5-----------5-7-----------7-5-----------5-|
|---------------------------------------------------------|


  
|-----------------------------------------------------------|
|-----------------------------------------------------------|
|-----------------------------------------------------------| Lead
|-----------------------------------------------------15-14-| Guitar
|-----------------------------------------------------------|
|-----------------------------------------------------------|
|                                                           |
|                                                           |
|-----------------------------------------------------------|
|-----------------------------------------------------------|
|-----------------------------------------------------------| Rhythm
|-----------------------------------------------------------| Guitar
|-.---------------------------.-------------.---------------|
|-3-------------------------1-3-------------3---------------|



Solo
~~~~

|---------------------------------------------------------|
|---------------------------------------------------------|
|-------------------------------------------12~~~------12-| Lead
|-12~~~---12-14-15~~~---14-12---------14-15---------15----| Guitar
|-----------------------------15~~~-----------------------|
|---------------------------------------------------------|
|                                                         |
|                                                         |
|---------------------------------------------------------|
|---------------------------------------------------------|
|-7-------------3---------------------------5-------------| Rhythm
|-7-------------3-------------3-------------5-------------| Guitar
|-5-------------1-------------3-------------3-------------|
|-----------------------------1---------------------------|



|---------------------------------------------------------|
|-----------------------------13~~~-----------------------|
|-14~~~---12------------14-15---------15-14-12~~~---15-14-| Lead
|------------15-15~~~-------------------------------------| Guitar
|---------------------------------------------------------|
|---------------------------------------------------------|
|                                                         |
|                                                         |
|---------------------------------------------------------|
|---------------------------------------------------------|
|-7-------------3---------------------------5-------------| Rhythm
|-7-------------3-------------3-------------5-------------| Guitar
|-5-------------1-------------3-------------3-------------|
|-----------------------------1---------------------------|



|---------------------------------------------------------|
|-------------------------------------------13~~~------13-|
|-12~~~---12-14-15~~~---14-12---------14-15---------15----| Lead
|-----------------------------15~~~-----------------------| Guitar
|---------------------------------------------------------|
|---------------------------------------------------------|
|                                                         |
|                                                         |
|---------------------------------------------------------|
|---------------------------------------------------------|
|---------------8-------------3---------------------------| Rhythm
|-5-------------8-------------3-------------3-------------| Guitar
|-5-------------6-------------1-------------3-------------|
|-3-----------------------------------------1-------------|



|-----------------------------13~~~-----------------------|
|-15~~~---13------------15-16---------16-15-13~~~---16-15-|
|------------15-15~~~-------------------------------------| Lead
|---------------------------------------------------------| Guitar
|---------------------------------------------------------|
|---------------------------------------------------------|
|                                                         |
|                                                         |
|---------------------------------------------------------|
|---------------------------------------------------------|
|---------------8-------------3---------------------------| Rhythm
|-5-------------8-------------3-------------3-------------| Guitar
|-5-------------6-------------1-------------3-------------|
|-3-----------------------------------------1-------------|



|------.------------------.-------------|
|-16---13---13-16-15-16---13---13-16-15-|
|---------------------------------------| Lead
|---------------------------------------| Guitar
|---------------------------------------|
|---------------------------------------|
|                                       |
|                                       |
|---------------------------------------|
|---------------------------------------|
|-----------5---------------------------| Rhythm
|-5----5----5------------------6--------| Guitar
|-3----3----3--------6----6----6--------| 
|--------------------4----4----4--------|
  .    .             .    .


|--------------------13--------------13-|
|-16---.-------15-16------.-------16----|
|------15---15------------15---15-------| Lead
|---------------------------------------| Guitar
|---------------------------------------|
|---------------------------------------|
|                                       |
|                                       |
|---------------------------------------|
|---------------------------------------|
|-----------8------------------3--------| Rhythm
|-8----8----8--------3----3----3--------| Guitar
|-6----6----6--------1----1----1--------|
|---------------------------------------|
  .    .             .    .


|-15---.-------13-15-16---.-------16----|
|------16---16------------16---16----16-|
|---------------------------------------| Lead
|---------------------------------------| Guitar
|---------------------------------------|
|---------------------------------------|
|                                       |
|                                       |
|---------------------------------------|
|---------------------------------------|
|-----------5---------------------------| Rhythm
|-5----5----5------------------6--------| Guitar
|-3----3----3--------6----6----6--------|
|--------------------4----4----4--------|
  .    .             .    .


|-15---.-------13-15-13-----------------|
|------16---16------------16---15---13--|
|---------------------------------------| Lead
|---------------------------------------| Guitar
|---------------------------------------|
|---------------------------------------|
|                                       |
|                                       |
|---------------------------------------|
|---------------------------------------|
|-----------8------------------3--------| Rhythm
|-8----8----8--------3----3----3--------| Guitar
|-6----6----6--------1----1----1--------|
|---------------------------------------|
  .    .             .    .


  1   +   2   +   3   +   4   +   5   +   6   +   7   +   
|---------------------------------------------------------|
|-----------------------------------------------.---.---.-|
|-.---.---.---------.---------.---.---.-----.---6---9---6-| Lead
|-7---8---5---7-.---5---.-----7---8---5---7-8-------------| Guitar
|---------------8-------7---8-----------------------------|
|---------------------------------------------------------|
|                                                         |
|                                                         |
|---------------------------------------------------------|
|---------------------------------------------------------|
|---------------------------------------------------------| Rhythm
|-----------------------------------------------.---.---.-| Guitar
|-.---.---.-----.---.---.-----.---.---.-----.---4---7---4-|
|-5---6---3---5-1---3---0---1-5---6---3---5-6-------------|



|-------------------------------------------------------------|
|-------------------------------------------------------------|
|-------------------------------------------------6---9---6---| Lead
|-7---8---5---7-------5-----------7---8---5---7---------------| Guitar
|-----------------8-------7---8-------------------------------|
|-------------------------------------------------------------|
|                                                             |
|                                                             |
|-------------------------------------------------------------|
|-------------------------------------------------------------|
|-------------------------------------------------------------| Rhythm
|-------------------------------------------------------------| Guitar
|-------------------------------------------------4---7---4---|
|-5---6---3---5---1---3---0---1---5---6---3---5---------------|


Back to Bridge, Chorus, Ending 2, then repeat:



|---------------------------------------------------------|
|-----------------------------------------------.---.---.-|
|-.---.---.---------.---------.---.---.-----.---6---9---6-| Lead
|-7---8---5---7-.---5---.-----7---8---5---7-8-------------| Guitar
|---------------8-------7---8-----------------------------|
|---------------------------------------------------------|
|                                                         |
|                                                         |
|---------------------------------------------------------|
|---------------------------------------------------------|
|---------------------------------------------------------| Rhythm
|-----------------------------------------------.---.---.-| Guitar
|-.---.---.-----.---.---.-----.---.---.-----.---4---7---4-|
|-5---6---3---5-1---3---0---1-5---6---3---5-6-------------|



|-------------------------------------------------------------|
|-------------------------------------------------------------|
|-------------------------------------------------6---9---6---| Lead
|-7---8---5---7-------5-----------7---8---5---7---------------| Guitar
|-----------------8-------7---8-------------------------------|
|-------------------------------------------------------------|
|                                             ritardando...   |
|                                                             |
|-------------------------------------------------------------|
|-------------------------------------------------------------|
|-------------------------------------------------------------| Rhythm
|-------------------------------------------------------------| Guitar
|-------------------------------------------------4---7---4---|
|-5---6---3---5---1---3---0---1---5---6---3---5---------------|
                                                 


|---------------------------------------------------------|
|---------------------------------------------------------|
|-7-------let ring... drum fills etc...-------------------| Both
|-7-------------------------------------------------------| Guitars
|-5-------------------------------------------------------|
|-5-------------------------------------------------------|



|---------------------------------|
|---------------------------------|
|-7-------------------------------|
|-7-------------------------------|
|-5-------------------------------|
|-5-------------------------------|

End!





Comments


Popular Sabaton tabs & chords
Primo Victoria Bass Tabs
En Livstid I Krig Chords
The Final Solution Chords
40-1 Tabs
Aces In Exile Tabs
En Livstid I Krig Tabs
Ghost Division Tabs
Ghost Division 1 Tabs
Guten Nacht Tabs
Metal Machine Tabs


Song lyrics



↑ Back to top | Tablatures and chords are parodies/interpretations of the original songs. You may use it for private study, scholarship, research or language learning purposes only
© 2014 AZChords.com Contact us | Privacy policy | DMCA | Add/correct tabs | Request tabs | Top 50 tabs