» » »

Ryan Star, We Might Fall Tabs (ver.1)

Artists:  A B C D E F G H I J K L M N O P Q R S T U V W X Y Z # 

We Might Fall Tabs (ver.1)

Ryan Star Tabs
 Rating:
4.2/5 (5 votes)
We Might Fall lessons Tabs too difficult? Try these video lessons and learn fast
1
                Tuning: Standard

Introduction / Verse 1
|--------------2-1---2-1--------|
|--7-6---7-6-2-----2-----2-2-4--|
|-------------------------------|
|-------------------------------|
|-------------------------------|
|------6-----4-----2-----2------|

|----------2-1-----2-1---------------2-1---2-1-------|
|--6-7-6-2-----2-------2-2-4-6-7-6-2-----2-----2-2-4-|
|----------------------------------------------------|
|----------------------------------------------------|
|----------------------------------------------------|
|--6-----4-----2-------2-----6-----4-----2-----2-----|

|----------2-1-----2-1----|
|--6-7-6-2-----2-------2--|
|-------------------------|
|-------------------------|
|-------------------------|
|--6-----4-----2-------2--|

Chorus
|---------------------------------------------|
|---------------------------------------------|
|---------------------------------------------|
|--8-8--6-6--4-4--11-11---8-8--6-6--4-4--11---|
|--8-8--6-6--4-4--11-11---8-8--6-6--4-4--11---|
|--6-6--4-4--2-2--9--9----6-6--4-4--2-2--9----|

Verse 2
|--------------2-1---2-1--------|
|--7-6---7-6-2-----2-----2-2-4--|
|-------------------------------|
|-------------------------------|
|-------------------------------|
|------6-----4-----2-----2------|

|----------2-1-----2-1---------------2-1---2-1-------|
|--6-7-6-2-----2-------2-2-4-6-7-6-2-----2-----2-2-4-|
|----------------------------------------------------|
|----------------------------------------------------|
|----------------------------------------------------|
|--6-----4-----2-------2-----6-----4-----2-----2-----|

|----------2-1-----2-1----|
|--6-7-6-2-----2-------2--|
|-------------------------|
|-------------------------|
|-------------------------|
|--6-----4-----2-------2--|

Chorus 2
|----------------------------------------------------|
|----------------------------------------------------|
|----------------------------------------------------|
|--11---8-8--6-6--4-4--11-11---8-8--6-6--4-4--11-11--|
|--11---8-8--6-6--4-4--11-11---8-8--6-6--4-4--11-11--|
|--9----6-6--4-4--2-2--9--9----6-6--4-4--2-2--9--9---|

Bridge 
|----------------------------------------------------|
|----------------------------------------------------|
|-------------------5-5------------------------------|
|--4-4--6-6--11-11--5-5---4-4--6-6--11-11--13-13-----|
|--4-4--6-6--11-11--3-3---4-4--6-6--11-11--13-13-----|
|--2-2--4-4--9--9---------2-2--4-4--9--9---11-11-----|

|----------------------------------------------------|
|----------------------------------------------------|
|-------------------5-5------------------------------|
|--4-4--6-6--11-11--5-5---4-4--6-6--11-11--13-13-----|
|--4-4--6-6--11-11--3-3---4-4--6-6--11-11--13-13-----|
|--2-2--4-4--9--9---------2-2--4-4--9--9---11-11-----|

Chorus 3 
(REPEAT X3)
|----------------------------------------------------|
|----------------------------------------------------|
|----------------------------------------------------|
|--4-4--6-6--11-11-10-9--- 4-4--6-6--11-11--13-13----|
|--4-4--6-6--11-11-10-9----4-4--6-6--11-11--13-13----|
|--2-2--4-4--9--9--8--7----2-2--4-4--9--9---11-11----|

(FINISH)
|-------------------------------------------------------|
|-------------------------------------------------------|
|-------------------------------------------------------|
|--4-4--6-6--11-11-10-9--- 4-4--6-6--11-11--13-13---4---|
|--4-4--6-6--11-11-10-9----4-4--6-6--11-11--13-13---4---|
|--2-2--4-4--9--9--8--7----2-2--4-4--9--9---11-11---2---|
            
Submit corrections

comments powered by Disqus
↑ Back to top | Ryan Star Tabs for We Might Fall. Lyrics for acoustic guitar and electric guitar. 1 Tablatures and chords are parodies/interpretations of the original songs. You may use it for private study, scholarship, research or language learning purposes only