» » »

Ryan Star, Breathe Tabs (ver.1)

Artists:  A B C D E F G H I J K L M N O P Q R S T U V W X Y Z # 

Breathe Tabs (ver.1)

Ryan Star Tabs
 Rating:
4.2/5 (5 votes)
Breathe lessons Tabs too difficult? Try these video lessons and learn fast
                -----------------------------------------------------------------------------
-----------------------------------------------------------------------------

One of my new favorite songs...let me know if you have any changes. 

Tuning : Drop D- DADGBe



Intro/Verse

Guitar 1
e|------------------------------------------------------------------|
B|------------------------------------------------------------------|
G|------------------------------------------------------------------|
D|--6-6-6-0-0-0-0-0-8-8-8-0-0-0-0-0-6-6-6-0-0-0-0-0-8-8-8-8-8-8-8-8-|  x3
A|--6-6-6-0-0-0-0-0-8-8-8-0-0-0-0-0-6-6-6-0-0-0-0-0-8-8-8-8-8-8-8-8-|
E|--6-6-6-0-0-0-0-0-8-8-8-0-0-0-0-0-6-6-6-0-0-0-0-0-8-8-8-8-8-8-8-8-|


Pre-Chorus (0:34)

Guitar 1

e|-----------------------------------|
B|-----------------------------------|
G|-----------------------------------|
D|--6-6-6-6-0-0-0-0-8-8-8-8-8-8-8-8--|
A|--6-6-6-6-0-0-0-0-8-8-8-8-8-8-8-8--|
E|--6-6-6-6-0-0-0-0-8-8-8-8-8-8-8-8--|

Guitar 2

e|------0-------0-----2-----|
B|----2---2---2---2---3-----|
G|--2-------0---------2-----|
D|--------------------------|
A|--------------------------|
E|--------------------------|


Chorus

Guitar 1
e|-------------------------------------------------------------------|
B|-------------------------------------------------------------------|
G|-------------------------------------------------------------------|
D|--0-0-0-0-0-0-0-0-8-8-8-8-8-8-8-8-6-6-6-6-6-6-6-6-0-0-0-0-8-8-8-8--|  x2
A|--0-0-0-0-0-0-0-0-8-8-8-8-8-8-8-8-6-6-6-6-6-6-6-6-0-0-0-0-8-8-8-8--|
E|--0-0-0-0-0-0-0-0-8-8-8-8-8-8-8-8-6-6-6-6-6-6-6-6-0-0-0-0-8-8-8-8--|

Guitar 2
e|----------------12--11---12------|---------|--12----|
B|--8-10-8-10/12---------------12--|-----12--|----10--|
G|---------------------------------|--10-----|--------|   x2
D|---------------------------------|---------|--------|
A|---------------------------------|---------|--------|
E|---------------------------------|---------|--------|
                                    ^First^   ^Second^
                                     Ending    Ending
Verse 2

Guitar 1- Repeat intro (2x)

Guitar 2 - (1:12)

e|------------------|
B|-----3---4--3-----|
G|--3----3------3---|
D|------------------|
A|------------------|
E|------------------|

Pre-Chorus (1:26)

Guitar 1

e|------------------------------------------------------------------|
B|------------------------------------------------------------------|
G|------------------------------------------------------------------|
D|--6-6-6-6-0-0-0-0-8-8-8-8-8-8-8-8-6-6-6-6-0-0-0-0-8-8-8-8-8-8-8-8-|
A|--6-6-6-6-0-0-0-0-8-8-8-8-8-8-8-8-6-6-6-6-0-0-0-0-8-8-8-8-8-8-8-8-|
E|--6-6-6-6-0-0-0-0-8-8-8-8-8-8-8-8-6-6-6-6-0-0-0-0-8-8-8-8-8-8-8-8-|

Guitar 2

e|---------------------0-------0-----------------------0-------0-----2~-|
B|-----3---4--3------2---2---2---2-----3---4--3------2---2---2---2---3~-|
G|--3----3------3--2-------0--------3----3------3--2-------0---------2~-|
D|----------------------------------------------------------------------|
A|----------------------------------------------------------------------|
E|----------------------------------------------------------------------|


Repeat Chorus


Bridge (2:00)

Guitar 1

e|------------------------------------------------------------------|
B|------------------------------------------------------------------|
G|------------------------------------------------------------------|
D|-6-6-6-6-6-6-6-6-8-8-8-8-8-8-8-8-0-0-0-0-0-0-0-0-8-8-8-8-8-8-8-8--| x2
A|-6-6-6-6-6-6-6-6-8-8-8-8-8-8-8-8-0-0-0-0-0-0-0-0-8-8-8-8-8-8-8-8--|
E|-6-6-6-6-6-6-6-6-8-8-8-8-8-8-8-8-0-0-0-0-0-0-0-0-8-8-8-8-8-8-8-8--|

Guitar 2

e|-----------------------------------------------------|
B|--8---------/10--------8---------10--------12--------|
G|--x--(16x)--/x--(16x)--x--(16x)--x--(12x)--x--(4x)---|
D|--5---------/7---------5---------7---------9---------|
A|-----------------------------------------------------|
E|-----------------------------------------------------|

e|--------------------------------|
B|--8---------10--------12--------|
G|--x--(16x)--x--(16x)--x--(32x)--|
D|--5---------7---------9---------|
A|--------------------------------|
E|--------------------------------|


Repeat Chorus until the end..


By the way, the bridge for the second guitar is really boring...so I added an extra chord 
in there to spice things up.  Please rate/comment :)
            
Submit corrections

comments powered by Disqus
↑ Back to top | Ryan Star Tabs for Breathe. Lyrics for acoustic guitar and electric guitar. Tablatures and chords are parodies/interpretations of the original songs. You may use it for private study, scholarship, research or language learning purposes only