>
 >
Misogyny

Misogyny Guitar Tabs

Rusty - Misogyny chords, tabs, tablatures, lyrics

Guitar lessons | Add/correct | Request | Top 50 tabs Artists:  A B C D E F G H I J K L M N O P Q R S T U V W X Y Z 0-9

Misogyny Guitar Tabs – Rusty

CD, Sheet music, Poster

Do you like Misogyny? Share with your friends now
ChordsTabs
  MISOGYNY
  RUSTY
  
  
  It's off their "fluke" album.
  It sounds like the band used two guitars to record this song,
  both arranged at a different tone. Thats probably why the
  distortion is so wierd.
  
  It's tuned 1/2 step down
  
 
  
  Intro and main riff:
    F#5 E5       C#5                                 A#5
  e:---------  --------------------------------------------
  B:---------  --------------------------------------------
  G:---------  --------------------------------------------
  D:--4\2-22-  -/11-11-11-11-11-11-11-11---2-2-2-4-4-6-6---
  A:--4\2-22-  -/11-11-11-11-11-11-11-11---2-2-2-4-4-6-6---
  E:--2\0-00-  -/9--9--9--9--9--9--9--9----0-0-0-2-2-4-4---
  
  Verse:
      C#5
  e:------------------------------------
  B:------------------------------------
  G:------------------------------------
  D:--11-11-11-11-11-11-11-11-11-11-11--
  A:--11-11-11-11-11-11-11-11-11-11-11-- ...and so on
  E:--9--9--9--9--9--9--9--9--9--9--9---
      ^                       ^  
  The verse sometimes does this slight variation
      C#5                       Cb5 
  e:-----------------------------------------
  B:-----------------------------------------
  G:-----------------------------------------
  D:--11-11-11-11-11-11-11-11-11\9/11-11-11--
  A:--11-11-11-11-11-11-11-11-11\9/11-11-11-- ...and so on
  E:--9--9--9--9--9--9--9--9--9-\7/9--9--9---
      ^                       ^
  
  
  Then comes this part:
        E5         Cb5   F#5         C#5
  e:--------0----------------------------------
  B:---------0--------------------------------- After the second
  G:------------------------------------------- time they play 
  D:----2------2----9-9--4--4-4-4--4/11-11-11-- this, go to the
  A:----2-----------9-9--4--4-4-4--4/11-11-11-- chorus...
  E:----0-----------7-7--2--2-2-2--2/9--9--9---  
    oh  uuuuuuuuuuuuuuuuuup  side   down
  
  
  
  Chorus:
  I'll start the chorus at this part so the tab is clearer
     Cb5 C#5
  e:-------------------------------------------
  B:------------------------------------------- the rythm is way
  G:------------------------------------------- off here, but 
  D:--9/11-11--9/11-11--9/11--9/11-11--9/11-11- you get the idea
  A:--9/11-11--9/11-11--9/11--9/11-11--9/11-11-
  E:--7/9--9---7/9--9---7/9---7/9--9---7/9--9--
  
         E5            Cb5   F#5
  e:-------0--------------------------------------------------
  B:--------0-------------------------------------------------
  G:----------------------------------------------------------
  D:----2-----2--------9-9--4--4-4-4---9/11-11--9/11-11--9/11- 
  A:----2--------------9-9--4--4-4-4---9/11-11--9/11-11--9/11-
  E:----0--------------7-7--2--2-2-2---7/9--9---7/9--9---7/9--
    and if you ask the cruellest      sole                 
 (etc)
  
  
  Then:
      A#5           F#5
  e:---------------------------------------------------
  B:---------------------------------------------------
  G:---------------------------------------------------
  D:--6-6-6-6-6-6-6-4-4-4-4-4-4-4-4--9/11-11--9/11-11-- etc
  A:--6-6-6-6-6-6-6-4-4-4-4-4-4-4-4--9/11-11--9/11-11--
  E:--4-4-4-4-4-4-4-2-2-2-2-2-2-2-2--7/9--9---7/7--9---
  
  Meanwhile, the second guitar makes a very distorted sound
that
  can be achieved by lightly sliding your finger up or down
  between the 2nd and 6th fret on the low E string...  
  
  And finaly:
  e:----------------------------------------------------
  B:----------------------------------------------------
  G:----------------------------------------------------
  D:--6-6-6-6-6-6-6-6-4-4-4-4-4-4-4-4-2-2-2-2-2-2-2-2---
  A:--6-6-6-6-6-6-6-6-4-4-4-4-4-4-4-4-2-2-2-2-2-2-2-2---
  E:--4-4-4-4-4-4-4-4-2-2-2-2-2-2-2-2-0-0-0-0-0-0-0-0---
     you'll always give him one moooooooooooooore
  e:-------------------------------------
  B:-------------------------------------
  G:-------------------------------------                      

  D:--4-4-4--4/5--5-5--/6-6-6-6-6-6-6-6--
  A:--2-2-2--2/3--3-3--/4-4-4-4-4-4-4-4--                      

  E:-------------------------------------
      yeyeyeyeyeyeyeeeaaaahhhhhhhhh !!!
          
  	e:-------------------------------------------
  	B:-------------------------------------------
  	G:-------------------------------------------
  	D:--2-2-2-4-4-6-6-/11-11-11-11-11-11-11-11---
  	A:--2-2-2-4-4-6-6-/11-11-11-11-11-11-11-11---
  	E:--0-0-0-2-2-4-4-/9--9--9--9--9--9--9--9----
  
   
  Outro:
  
  e:-----0------------------------------------------------
  B:------0-----------------------------------------------
  G:------------------------------------------------------
  D:--2-----2----9----4----111111111111111111111111~~~~~~~
  A:--2----------9----4----111111111111111111111111~~~~~~~
  E:--0----------7----2----9-9-9-9-9-9-9-9-9-9-9-9-~~~~~~~
  
  
  LYRICS:
  He veers, she fears, he's coming home to box her ears
  oh, upside down
  Welfare takes care, of all the women in his lair
  oh, upside down
  
  And is you ask the cruellest sole, sole
  You can't expect him to be home, be home
  You'll always ask for one more try, try
  You'll always ask for one more......
  yeyeyeyeyeyeyeeeeeaaaaaahhhhh!!!!
  
  She scrubs, he comes, she holds in her self for months
  oh, upside down
  He's bored, she scored, the blade has got a life that's torn
  oh, upside down 
  (chorus)
  
  It's bad luck, man it sucks, she's been impressed who gives a
  fuck
  oh, upside down
  She's tired, growing tired, he's gonna rip her up inside
  oh, upside down
  
  (chorus)
  
  Oh,upside down
  
  And if you ask the cruellest sole, sole
  You can't expect him to be home, be home
  He'll always ask for one more try, try
  He'll always ask for one more try, try
  You'll always give him one more.......
  
  YEYEYEYEYEYEYEEEEEEEEAAAAAHHHHHHHHH!!!!!
   
  
  	Thats about it. This is as close as i can get to the real
  thing. I saw them live three times, and i think this is how
  Scott plays it. But still, if you think i'm dead wrong about
  this tab, send me corrections.
  
  							Enjoy,
  								J.P.





Comments


Popular Rusty tabs & chords
Groovy Dead Bass Tabs
Groovy Dead 1 Bass Tabs
Groovy Dead Chords
Misogyny Chords
California Tabs
California 1 Tabs
Empty Cell 1 Tabs
Groovy Dead Tabs
Memories Tabs
Wake Me Tabs


Song lyrics



↑ Back to top | Tablatures and chords are parodies/interpretations of the original songs. You may use it for private study, scholarship, research or language learning purposes only
© 2014 AZChords.com Contact us | Privacy policy | DMCA | Add/correct tabs | Request tabs | Top 50 tabs