» » »

Memories Tabs (ver.1)

Artists:  A B C D E F G H I J K L M N O P Q R S T U V W X Y Z # 

Memories Tabs (ver.1)

Rusty
Rating:
0/5 (0 votes)

Hard to play? Try these video lessons and learn fast.
                
BAND: Rusty
TUNING: EADGBe


INTRO:
    G              C              G              C
e|-----------15-------------------------15-15-15-----------------|
B|--------------15-------------15-15b17----------15b17r15-12-----|
G|--14b16----------14b16r14-12-------------------------------14--|
D|---------------------------------------------------------------|
A|---------------------------------------------------------------|
E|---------------------------------------------------------------|

    G              C              G              C              G
e|--------15----------------------------15-15-15-----------------------|
B|-----------15----------------15-15b17----------15b17r15-12-----------|
G|--14b16-------14-14b16r14-12-------------------------------14-14b16/-|
D|---------------------------------------------------------------------|
A|---------------------------------------------------------------------|
E|---------------------------------------------------------------------|
                                                         We say


VERSE 1:
   G       C       G       C       G       C       G       C
e|------------------------------------------------------------------|
B|------------------------------------------------------------------|
G|-----0-------0-------0-------0-------0-------0-------0-------0----|
D|-------0---2---0-------0---2---0-------0---2---0-------0---2---0--|
A|---2-----3---------2-----3---------2-----3---------2-----3--------|
E|-3---------------3---------------3---------------3----------------|
                         it happened long ago

   F       C       F       C
e|----------------------------------|
B|-----1-------1-------1-------1----|
G|---2---2-------0---2---2-------0--|
D|-3---------2-----3---------2------|
A|---------3---------------3--------|
E|----------------------------------|
     You hold onto the memories, you never let them

   G       F#      Em               A             D
e|--------------------------------------------------2-----2-0------|
B|-----------------------0...-----------2-2p0---------3-------3----|
G|-----0-------0--------------0---------------2---------2-------2--|
D|---0---0---0---0-----2--------2-----2---------2-0----------------|
A|-------------------2------------2-0------------------------------|
E|-3-------2-------0-----------------------------------------------|
   Go...............   You keep them inside, don't ever let them know...

    G              C              G              C
e|-----------15-------------------------15-15-15-----------------|
B|--------------15-------------15-15b17----------15b17r15-12-----|
G|--14b16...-------14b16r14-12-------------------------------14--|
D|---------------------------------------------------------------|
A|-------WAIT----------------------------------------------------|
E|-------FOR A BIT-----------------------------------------------|
                                                        Let 'em know

    G              C              G              C              G
e|--------15----------------------------15-15-15-----------------------|
B|-----------15----------------15-15b17----------15b17r15-12-----------|
G|--14b16-------14-14b16r14-12-------------------------------14-14b16/-|
D|---------------------------------------------------------------------|
A|---------------------------------------------------------------------|
E|---------------------------------------------------------------------|

OUTRO:
e|----------------------|
B|----------------------|
G|----------------------|
D|---------------2-0----|
A|------2-0h3...--------|
E|-3...--------------3--|
            
Hard to play? Try these video lessons and learn fast. | Correct




comments powered by Disqus
↑ Back to top | Tablatures and chords are parodies/interpretations of the original songs. You may use it for private study, scholarship, research or language learning purposes only