>
 >
The Big Wheel

The Big Wheel Guitar Tabs

Rush - The Big Wheel chords, tabs, tablatures, lyrics

Guitar lessons | Add/correct | Request | Top 50 tabs Artists:  A B C D E F G H I J K L M N O P Q R S T U V W X Y Z 0-9

The Big Wheel Guitar Tabs – Rush

CD, Sheet music, Poster

Do you like The Big Wheel? Share with your friends now
Bass TabsDrum TabsTabs
 Gtr I
   H.                 +E          E    +H.          +E   E
|--6------------------(6)---------4--|-(4)----------(4)--2-------|
|--7------------------(7)---------6--|-(6)----------(6)--2-------|
|--8------------------(8)---------6--|-(6)----------(6)--3-------|
|--8------------------(8)---------6--|-(6)----------(6)--4-------|
|--6------------------(6)---------4--|-(4)----------(4)--4-------|
|------------------------------------|-------------------2-------|
|
| Gtr II
|  H.                 +E          E    +H.          +E   E
|------------------------------------|---------------------------|
|-11-----------------(11)---------9--|-(9)----------(9)----------|
|------------------------------------|------------------11-------|
|------------------------------------|---------------------------|
|------------------------------------|---------------------------|
|------------------------------------|---------------------------|
|
| Gtr III
|                      |--3---|
|  E   E  E  E  E  E   S   S  S  +E     E   E  E  E  E   E  E  E
|------------------------------------|---------------------------|
|-16--18-20-21-18-20--21--20-18-(18)-|-16--18-20-21-20--18-------|
|------------------------------------|---------------------17-15-|
|------------------------------------|---------------------------|
|------------------------------------|---------------------------|
|------------------------------------|---------------------------|


   +H.                 +E   E         +H.          +E   E
|--(2)-----------------(2)--0-------|-(0)----------(0)--6-------------|
|--(2)-----------------(2)--0-------|-(0)----------(0)--7-------------|
|--(3)-----------------(3)--1-------|-(1)----------(1)--8-------------|
|--(4)-----------------(4)--2-------|-(2)----------(2)--8-------------|
|--(4)-----------------(4)--2-------|-(2)----------(2)--6-------------|
|--(2)-----------------(2)--0-------|-(0)----------(0)----------------|
|
|  +H.                 +E   E         +h           +E   E
|-----------------------------------|---------------------------------|
|-----------------------------------|------------------11-------------|
|-(11)----------------(11)--9-------|-(9)----------(9)----------------|
|-----------------------------------|---------------------------------|
|-----------------------------------|---------------------------------|
|-----------------------------------|---------------------------------|
|
|                       |--3---|                           |--3--|
|   E   E  E  E  E  E   S   S  S  E    E   E  E  E  E   E  S  S  S  E
|-----------------------------------|---------------------------------|
|--16--18-20-21-18-20--21--20-18-18-|-16--18-20-21-18--20-21-20-18-18-|
|-----------------------------------|---------------------------------|
|-----------------------------------|---------------------------------|
|-----------------------------------|---------------------------------|
|-----------------------------------|---------------------------------|


  Gtr I
   +H.                 +E          E    +H.                +E   E
|--(6)-----------------(6)---------4--|-(4)----------------(4)--2-|
|--(7)-----------------(7)---------6--|-(6)----------------(6)--2-|
|--(8)-----------------(8)---------6--|-(6)----------------(6)--3-|
|--(8)-----------------(8)---------6--|-(6)----------------(6)--4-|
|--(6)-----------------(6)---------4--|-(4)----------------(4)--4-|
|-------------------------------------|-------------------------2-|
|
| Gtr II
|  +H.                 +E          E    +H.                +E   E
|-------------------------------------|---------------------------|
|-(11)----------------(11)---------9--|-(9)----------------(9)----|
|-------------------------------------|------------------------11-|
|-------------------------------------|---------------------------|
|-------------------------------------|---------------------------|
|-------------------------------------|---------------------------|
|
| Gtr III
|                       |--3---|
|   E   E  E  E  E  E   S   S  S  +E     E   E  E  E  E  E  E   E
|-------------------------------------|---------------------------|
|--16--18-20-21-18-20--21--20-18-(18)-|-16--18-20-21-20-18--------|
|-------------------------------------|--------------------17--15-|
|-------------------------------------|---------------------------|
|-------------------------------------|---------------------------|
|-------------------------------------|---------------------------|


   H.                 +E         E   +E   E  E  E  E  E  E        E
|--2------------------(2)--------0-|--------------------------------|
|--2------------------(2)--------0-|--------------------------------|
|--3------------------(3)--------1-|--------------------------------|
|--4------------------(4)--------2-|-(2)--2--2--2--2--2--2--------2-|
|--4------------------(4)--------2-|-(2)--2--2--2--2--2--2--------2-|
|--2------------------(2)--------0-|-(0)--0--0--0--0--0--0--------0-|
|
|  H.                 +E         E   +W
|----------------------------------|--------------------------------|
|----------------------------------|--------------------------------|
|-11-----------------(11)--------9-|-(9)----------------------------|
|----------------------------------|--------------------------------|
|----------------------------------|--------------------------------|
|----------------------------------|--------------------------------|
|
|                      |--3---|                          |--3--|
|  E   E  E  E  E  E   S   S  S  E    E   E  E  E  E  E  S  S  S  E
|----------------------------------|--------------------------------|
|-16--18-20-21-18-20--21--20-18-18-|-16--18-20-21-18-20-21-20-18-18-|
|----------------------------------|--------------------------------|
|----------------------------------|--------------------------------|
|----------------------------------|--------------------------------|
|----------------------------------|--------------------------------|


  Q.   Q E  Q    Q.   Q E  Q    Q.   Q E  Q   Q. Q E  Q
|-0----2-2--2--|-0----2-2--2--|-0----2-2--2-|-0--3-3--2----|
|-0----3-3--2--|-0----3-3--2--|-0----3-3--2-|-0--3-3--3----|
|------2-2--2--|------2-2--2--|------2-2--2-|----2-2--2----|
|-2----0-0-----|-2----0-0-----|-2----0-0----|-2--0-0--0----|
|-2------------|-2------------|-2-----------|-2------------|
|-0------------|-0------------|-0-----------|-0------------|


    E E E E E E E E  8x Q.   Q E  Q
||-------------------||-0----2-2--2--|
||o-----------------o||-0----3-3--2--|
||--4-4-4-4-4-4-4-4--||------2-2--2--|
||--4-4-4-4-4-4-4-4--||-2----0-0-----|
||o-0-0-0-2-2-2-2-2-o||-2------------|
||-------------------||-0------------|


  Q.   Q E  Q    Q.   Q E  Q    Q.   Q E  Q
|-0----2-2--2--|-0----2-2--2--|-0----3-3--2--|
|-0----3-3--2--|-0----3-3--2--|-0----3-3--3--|
|------2-2--2--|------2-2--2--|------2-2--2--|
|-2----0-0-----|-2----0-0-----|-2----0-0--0--|
|-2------------|-2------------|-2------------|
|-0------------|-0------------|-0------------|


    E E E E E E E E  8x Q.   Q E  Q
||-------------------||-0----2-2--2--|
||o-----------------o||-0----3-3--2--|
||--4-4-4-4-4-4-4-4--||------2-2--2--|
||--4-4-4-4-4-4-4-4--||-2----0-0-----|
||o-0-0-0-2-2-2-2-2-o||-2------------|
||-------------------||-0------------|


  Q.   Q E  Q    Q.   Q E  Q    Q.   Q E  Q
|-0----3-3--2--|-0----2-2--2--|-0----3-3--2--|
|-0----3-3--3--|-0----3-3--2--|-0----3-3--3--|
|------2-2--2--|------2-2--2--|------2-2--2--|
|-2----0-0--0--|-2----0-0-----|-2----0-0--0--|
|-2------------|-2------------|-2------------|
|-0------------|-0------------|-0------------|


    Gtr I
                 W                                 W
||----------------------------------|-------------------------|
||o---------------------------------|-------------------------|
||----------------------------------|-------------------------|
||----------------------------------|-------------------------|
||o---------------------------------|-------------------------|
||----------------------------------|-------------------------|
|
|   Gtr III
|                      |--3--|
|    E  E  E  E  E  E  S  S  S  +E.    E  E  E  E  E  E  E  E
||----------------------------------|-------------------------|
||o-16-18-20-21-18-20-21-20-18-(18)-|-16-18-20-21-20-18-------|
||----------------------------------|-------------------17-15-|
||----------------------------------|-------------------------|
||o---------------------------------|-------------------------|
||----------------------------------|-------------------------|


               W                                 W
|---------------------------------|-------------------------|
|---------------------------------|-------------------------|
|---------------------------------|-------------------------|
|---------------------------------|-------------------------|
|---------------------------------|-------------------------|
|---------------------------------|-------------------------|
|
|                    |--3--|
|  E  E  E  E  E  E  S  S  S  +E.    E  E  E  E  E  E  E  E
|---------------------------------|-------------------------|
|-16-18-20-21-18-20-21-20-18-(18)-|-16-18-20-21-20-18-------|
|---------------------------------|-------------------17-15-|
|---------------------------------|-------------------------|
|---------------------------------|-------------------------|
|---------------------------------|-------------------------|


   Q.        E  H                      Q.        E  H
|-----------------------------------|----------------------------||
|-----------------------------------|---------------------------o||
|-----------------------------------|----------------------------||
|--2---------4--4-------------------|--2---------4--4------------||
|--2---------4--4-------------------|--2---------4--4-----------o||
|--0---------2-(2)------------------|--0---------2-(2)-----------||
|
|                      |--3--|
|  E   E  E  E  E   E  S  S  S  +E.    E   E  E  E  E   E  E  E
|-----------------------------------|----------------------------||
|-16--18-20-21-18--20-21-20-18-(18)-|-16--18-20-21-20--18-------o||
|-----------------------------------|---------------------17-15--||
|-----------------------------------|----------------------------||
|-----------------------------------|---------------------------o||
|-----------------------------------|----------------------------||


  Gtr I
  Q.   E  H       Q.   E  H
|---------------|---------------|
|---------------|---------------|
|---------------|---------------|
|-2----4--4-----|-2----4--4-----|
|-2----4--4-----|-2----4--4-----|
|-0----2-(2)----|-0----2-(2)----|


    PM
    S S S S S S S S S S S S S S S S
||-----------------------------------||
||o---------------------------------o||
||--4-4-4-4-4-4-4-4-4-4-4-4-4-4-4-4--||
||--4-4-4-4-4-4-4-4-4-4-4-4-4-4-4-4--||
||o-0-0-0-0-0-0-2-2-2-2-2-2-2-2-2-2-o||
||-----------------------------------||


    PM
    S S S S S S S S S S S S S S S S
||-----------------------------------||
||o-2-2-2-2-4-4-4-4-4-4-4-4-4-4-4-4-o||
||--4-4-4-4-4-4-4-4-4-4-4-4-4-4-4-4--||
||-----------------------------------||
||o---------------------------------o||
||-----------------------------------||


  Q.   Q E  Q    Q.   Q E  Q    Q.   Q E  Q    Q.   Q E  Q
|-0----2-2--2--|-0----3-3--2--|-0----2-2--2--|-0----3-3--2---|
|-0----3-3--2--|-0----3-3--3--|-0----3-3--2--|-0----3-3--3---|
|------2-2--2--|------2-2--2--|------2-2--2--|------2-2--2---|
|-2----0-0-----|-2----0-0--0--|-2----0-0--0--|-2----0-0--0---|
|-2------------|-2------------|-2------------|-2-------------|
|-0------------|-0------------|-0------------|-0-------------|


    PM
    S S S S S S S S S S S S S S S S
||-----------------------------------||
||o---------------------------------o||
||--4-4-4-4-4-4-4-4-4-4-4-4-4-4-4-4--||
||--4-4-4-4-4-4-4-4-4-4-4-4-4-4-4-4--||
||o-0-0-0-0-0-0-2-2-2-2-2-2-2-2-2-2-o||
||-----------------------------------||


  PM
  S S S S S S S S S S S S S S S S   S S S S S S S S S S S S S S S S
|---------------------------------|---------------------------7-7-7--|
|-2-2-2-2-2-2-2-4-4-4-4-4-4-4-4-4-|-2-2-2-2-2-2-2-4-4-4-4-4-4-4-4-4--|
|-4-4-4-4-4-4-4-4-4-4-4-4-4-4-4-4-|-4-4-4-4-4-4-4-4-4-4-4-4-4-4-4-4--|
|---------------------------------|----------------------------------|
|---------------------------------|----------------------------------|
|---------------------------------|----------------------------------|


  Q.   Q E  Q    Q.   Q E  Q    Q.   Q E  Q    Q.   Q E  Q
|-0----2-2--2--|-0----3-3--2--|-0----2-2--2--|-0----3-3--2---|
|-0----3-3--2--|-0----3-3--3--|-0----3-3--2--|-0----3-3--3---|
|------2-2--2--|------2-2--2--|------2-2--2--|------2-2--2---|
|-2----0-0-----|-2----0-0--0--|-2----0-0-----|-2----0-0--0---|
|-2------------|-2------------|-2------------|-2-------------|
|-0------------|-0------------|-0------------|-0-------------|


    Gtr I
     W                                 W
||----------------------------------|-------------------------|
||o---------------------------------|-------------------------|
||----------------------------------|-------------------------|
||----------------------------------|-------------------------|
||o---------------------------------|-------------------------|
||----------------------------------|-------------------------|
|
|   Gtr III
|                      |--3--|
|    E  E  E  E  E  E  S  S  S  +E.    E  E  E  E  E  E  E  E
||----------------------------------|-------------------------|
||o-16-18-20-21-18-20-21-20-18-(18)-|-16-18-20-21-20-18-------|
||----------------------------------|-------------------17-15-|
||----------------------------------|-------------------------|
||o---------------------------------|-------------------------|
||----------------------------------|-------------------------|


               W                             W
|--------------------------------|-------------------------|
|--------------------------------|-------------------------|
|--------------------------------|-------------------------|
|--------------------------------|-------------------------|
|--------------------------------|-------------------------|
|--------------------------------|-------------------------|
|
|                    |--3--|
|  E  E  E  E  E  E  S  S  S  E.    E  E  E  E  E  E  E  E
|--------------------------------|-------------------------|
|-16-18-20-21-18-20-21-20-18-18--|-16-18-20-21-20-18-------|
|--------------------------------|-------------------17-15-|
|--------------------------------|-------------------------|
|--------------------------------|-------------------------|
|--------------------------------|-------------------------|


               W                              W
|---------------------------------|-------------------------|
|---------------------------------|-------------------------|
|---------------------------------|-------------------------|
|---------------------------------|-------------------------|
|---------------------------------|-------------------------|
|---------------------------------|-------------------------|
|
|                    |--3--|
|  E  E  E  E  E  E  S  S  S  +E.    E  E  E  E  E  E  E  E
|---------------------------------|-------------------------|
|-16-18-20-21-18-20-21-20-18-(18)-|-16-18-20-21-20-18-------|
|---------------------------------|-------------------17-15-|
|---------------------------------|-------------------------|
|---------------------------------|-------------------------|
|---------------------------------|-------------------------|


  Gtr I
   Q.        E  H                      Q.        E  H
|-----------------------------------|----------------------------||
|-----------------------------------|---------------------------o||
|-----------------------------------|----------------------------||
|--2---------4--4-------------------|--2---------4--4------------||
|--2---------4--4-------------------|--2---------4--4-----------o||
|--0---------2-(2)------------------|--0---------2-(2)-----------||
|
| Gtr III
|                      |--3--|
|  E   E  E  E  E   E  S  S  S  +E.    E   E  E  E  E   E  E  E
|-----------------------------------|----------------------------||
|-16--18-20-21-18--20-21-20-18-(18)-|-16--18-20-21-20--18-------o||
|-----------------------------------|---------------------17-15--||
|-----------------------------------|----------------------------||
|-----------------------------------|---------------------------o||
|-----------------------------------|----------------------------||


  Q.   E  H       Q.   E  H
|---------------|---------------|
|---------------|---------------|
|---------------|---------------|
|-2----4--4-----|-2----4--4-----|
|-2----4--4-----|-2----4--4-----|
|-0----2-(2)----|-0----2-(2)----|


  Gtr I
   S S S S  S S S S  S S S S   S  S S S
|-11p9p7-9-11p9p7-9-11p9p7-9--11p=9p7-9-|
|---------------------------------------|
|---------------------------------------|
|---------------------------------------|
|---------------------------------------|
|---------------------------------------|
|
| Gtr II
|  H.                         +E    E
|-11-------------------------(11)-------|
|-----------------------------------9---|
|---------------------------------------|
|---------------------------------------|
|---------------------------------------|
|---------------------------------------|


   S  S S S  S S S S  S S S S  S  S  S S
|-11p=9p7-9-11p9p7-9-11p9p7-9-11p=9p=7-9--|
|-----------------------------------------|
|-----------------------------------------|
|-----------------------------------------|
|-----------------------------------------|
|-----------------------------------------|
|
| +H.                         +E     E
|-----------------------------------------|
|-(9)-------------------------(9)---------|
|-----------------------------------11----|
|-----------------------------------------|
|-----------------------------------------|
|-----------------------------------------|


   S S S S  S S S S  S S S S   S  S S S
|-11p9p7-9-11p9p7-9-11p9p7-9--11p=9p7-9-|
|---------------------------------------|
|---------------------------------------|
|---------------------------------------|
|---------------------------------------|
|---------------------------------------|
|
|  H.                         +E    E
|---------------------------------------|
|---------------------------------------|
|-11-------------------------(11)---9---|
|---------------------------------------|
|---------------------------------------|
|---------------------------------------|


   S  S S S  S S S S  S S S S  S  S  S S
|-11p=9p7-9-11p9p7-9-11p9p7-9-11p=9p=7-9--|
|-----------------------------------------|
|-----------------------------------------|
|-----------------------------------------|
|-----------------------------------------|
|-----------------------------------------|
|
| +H.                         +E     E
|-----------------------------------------|
|-----------------------------------------|
|-(9)-------------------------(9)---11----|
|-----------------------------------------|
|-----------------------------------------|
|-----------------------------------------|


   S S S S  S S S S  S S S S   S  S  S    S
|-11p9p7-9-11p9p7-9-11p9p7-9--11p=9p=7----9----|
|----------------------------------------------|
|----------------------------------------------|
|----------------------------------------------|
|----------------------------------------------|
|----------------------------------------------|
|
|                                    |---3---|
|  H.                         +E     S  S    S
|----------------------------------------------|
|----------------------------------------------|
|-11-------------------------(11)---13-11------|
|-------------------------------------------14-|
|----------------------------------------------|
|----------------------------------------------|


   S S S S  S S  S  S  S S S S  S S S S
|-11p9p7-9-11p9p=7--9-11p9p7-9-11p9p7-9--|
|----------------------------------------|
|----------------------------------------|
|----------------------------------------|
|----------------------------------------|
|----------------------------------------|
|
|  Q.            S  S  H
|----------------------------------------|
|---------------------11-----------------|
|----------------------------------------|
|-14------------13-11--------------------|
|----------------------------------------|
|----------------------------------------|


   S S S S  S S S S  S S S S  S S  S S    S S S S  S S S S  S S S S  S S S S
|-11p9p7-9-11p9p7-9-11p9p7-9-11p9p=7-9-|-11p9p7-9-11p9p7-9-11p9p7-9-11p9p7-9--|
|--------------------------------------|--------------------------------------|
|--------------------------------------|--------------------------------------|
|--------------------------------------|--------------------------------------|
|--------------------------------------|--------------------------------------|
|--------------------------------------|--------------------------------------|
|
|  H.                         E    E      W
|--------------------------------------|--------------------------------------|
|-11--------------------------9---11---|-12-----------------------------------|
|--------------------------------------|--------------------------------------|
|--------------------------------------|--------------------------------------|
|--------------------------------------|--------------------------------------|
|--------------------------------------|--------------------------------------|


    Gtr I
    PM
    E E E E E E E E  4x     E E E E E E E E   E E E E E E E E
||-------------------||-||------------------|------------------||
||o-----------------o||-||o-----------------|-----------------o||
||--4-4-4-4-4-4-4-4--||-||------------------|------------------||
||--4-4-4-4-4-4-4-4--||-||------2-----4-----|-----2-----4------||
||o-0-0-0-2-2-2-2-2-o||-||o---2-----4---4---|---2-----4---4---o||
||-------------------||-||--0-----2-------2-|-0-----2-------2--||


    PM
    E E E E E E E E   E E E E E E E E
||------------------|------------------||-|
||o-3-3-3-5-5-5-5-3-|-3-3-3-5-5-2-2-2-o||-|
||--2-2-2-2-2-2-2-2-|-2-2-2-2-2-2-2-2--||-|
||------------------|------------------||-|
||o-----------------|-----------------o||-|
||------------------|------------------||-|


    E E E E E E E E   E E E E E E E E
||------------------|-------------------||
||o-----------------|------------------o||
||------------------|-------------------||
||------2-----4-----|-----2-----4-------||
||o---2-----4---4---|---2-----4---4----o||
||--0-----2-------2-|-0-----2-------2---||


    PM
    E E E E E E E E   E E E E E E E E
||------------------|------------------||
||o-3-3-3-5-5-5-5-3-|-3-3-3-5-5-2-2-2-o||
||--2-2-2-2-2-2-2-2-|-2-2-2-2-2-2-2-2--||
||------------------|------------------||
||o-----------------|-----------------o||
||------------------|------------------||


  E E E E E E E E   E E E E E E E E   E E E E E E E E   E E E E E E E E
|-----------------|-----------------|-----------------|------------------|
|-----------------|-----------------|-----------------|------------------|
|-----------------|-----------------|-4-4-4-4-4-4-4-4-|-4-4-4-4-4-4-4-4--|
|-----2-----4-----|-----2-----4-----|-4-4-4-4-4-4-4-4-|-4-4-4-4-4-4-4-4--|
|---2-----4---4---|---2-----4---4---|-2-2-2-0-0-0-0-0-|-2-2-2-0-0-0-0-0--|
|-0-----2-------2-|-0-----2-------2-|-----------------|------------------|


    Gtr I
                       W                          W
||--------------------------------------|--------------|
||o-------------------------------------|--------------|
||--------------------------------------|--------------|
||--------------------------------------|--------------|
||o-------------------------------------|--------------|
||--------------------------------------|--------------|
|
|   Gtr II
|    S S S S  S S S S  S S S S  S S S S
||--11p9p7-9-11p9p7-9-11p9p7-9-11p9p7-9-|--------------|
||o-------------------------------------|--------------|
||--------------------------------------|--------------|
||--------------------------------------|--------------|
||o-------------------------------------|--------------|
||--------------------------------------|--------------|


  Gtr I
        W                    W
|------------------|--------------|
|------------------|--------------|
|------------------|--------------|
|------------------|--------------|
|------------------|--------------|
|------------------|--------------|
|
| Gtr II
|------------------|--------------|
|------------------|--------------|
|------------------|--------------|
|------------------|--------------|
|------------------|--------------|
|------------------|--------------|


  Gtr I
        W                    W
|------------------|--------------|
|------------------|--------------|
|------------------|--------------|
|------------------|--------------|
|------------------|--------------|
|------------------|--------------|
|
| Gtr II
|------------------|--------------|
|------------------|--------------|
|------------------|--------------|
|------------------|--------------|
|------------------|--------------|
|------------------|--------------|


  Gtr I
  Q.   E  H       Q.   E  H
|---------------|----------------||
|---------------|---------------o||
|---------------|----------------||
|-2----4--4-----|-2----4--4------||
|-2----4--4-----|-2----4--4-----o||
|-0----2-(2)----|-0----2-(2)-----||


Tablature Legend
----------------
 h   - hammer-on
 p   - pull-off
 b   - bend
 pb  - pre-bend
 r   - bend release (if no number after the r, then release immediately)
 /\  - slide into or out of (from/to "nowhere")
 s   - legato slide
 S   - shift slide
  - natural harmonic
[n]  - artificial harmonic
n(n) - tapped harmonic
 ~   - vibrato
 tr  - trill
 T   - tap
 TP  - trem. picking
 PM  - palm muting
\n/  - tremolo bar dip; n = amount to dip
 \n  - tremolo bar down
 n/  - tremolo bar up
/n\  - tremolo bar inverted dip
 =   - hold bend; also acts as connecting device for hammers/pulls
 <>  - volume swell (louder/softer)
 x   - on rhythm slash represents muted slash
 o   - on rhythm slash represents single note slash

Misc Legend
-----------
 |  - bar
||  - double bar
||o - repeat start
o|| - repeat end
*|  - double bar (ending)
 :  - bar (freetime)
 $  - Segno
 &  - Coda
Tempo markers -  = BPM(8/16=s8/s16), where s8 = swing 8ths, s16 = swing 16ths





Comments


Popular Rush tabs & chords
Half The World 3 Bass Tabs
Oracle The Dream Drum Tabs
Stick It Out Drum Tabs
Here Again 1 Tabs
Losing It 1 Tabs
Madrigal 1 Tabs
My Little Friend Called Valeria Tabs
War Paint Tabs
Working Man Tabs
Mission Ukulele


Song lyrics



↑ Back to top | Tablatures and chords are parodies/interpretations of the original songs. You may use it for private study, scholarship, research or language learning purposes only
© 2014 AZChords.com Contact us | Privacy policy | DMCA | Add/correct tabs | Request tabs | Top 50 tabs