» » »

Rush, In The Mood Tabs (ver.1)

Artists:  A B C D E F G H I J K L M N O P Q R S T U V W X Y Z # 

In The Mood Tabs (ver.1)

Rush Tabs
Rating:
0/5 (0 votes)
Hard to play? Try these video lessons and learn fast.
                Here's the Tab for  "In The Mood" by RUSH

This document uses Courier New at 10 Point, for those who use MS Word to
print and edit.

I am also assuming that you know the timing and feel for the song, and that
Alex's chord are really power chords.

The solo that Alex plays is in the A minor pentatonic from the fifth fret,
it's pretty easy to come up with you own variations. I have mine, but I'm
too lazy to fill it in.

Even though the song is pretty easy to play, I suggest practicing each part
seperately, and then combine them to speed.

If you have any questions or suggestions, you can e-mail me at:

Now to the Tab:


Rhythm #1 - the Main Riff[1of4]

...A..A
[--0--0------------------------------]
[--2--2------------------------------]
[--2--2------------2--5->-4----------]
[--2--2--4-----2-4----5->-4-2-4-2----]
[--0--0----3-4--------------------3--]
[------------------------------------]


Rhythm #2 - After Main Riff[2of4]
...C..C..C+ C  C..C..C+ C
[--3--3--3--3--3--3--3--3------------------]
[--5--5--5--5--5--5--5--5---8->-7----------]
[--5--5--5--5--5--5--5--5---8->-7-5-7-5----]
[--5--5--7--5--5--5--7--5---------------6--]
[--3--3--3--3--3--3--3--3------------------]
[------------------------------------------]


Rhythm #3 - More Main Riff[3of4
...D..D..D+.D..D..D..D+ D...A  A  A+ A  A  A  A+ A
[--5--5--5--5--5--5--5--5---0--0--0--0--0--0--0--0]
[--7--7--7--7--7--7--7--7---2--2--2--2--2--2--2--2]
[--7--7--7--7--7--7--7--7---2--2--2--2--2--2--2--2]
[--7--7--9--7--7--7--9--7---2--2--4--2--2--2--4--2]
[--5--5--5--5--5--5--5--5---0--0--0--0--0--0--0--0]
[-------------------------------------------------]


Rhythm #4 - Ending of Main Riff[4of4](also in Chorus)
.../G..G..G..G..F#.F..E.E.E.E
[--/3--3--3--3--2--1--------0-]
[--/3--3--3--3--2--1------0-0-]    *Note - The last E chord is played
[--/4--4--4--4--3--2----1-1-1-]            4 times, but fanned.
[--/5--5--5--5--4--3--2-2-2---]
[--/5--5--5--5--4--3--2-2-----]
[--/3--3--3--3--2--1--0-------]




Chorus #1 - First Part[1of2]
...D..D..A..A..G..G..G..A
[--5--5--5--5--3--3--3--5--5--5--5]
[--7--7--5--5--3--3--3--5--5--5--5]
[--7--7--6--6--4--4--4--6--6--6--6]
[--7--7--7--7--5--5--5--7--7--7--7]
[--5--5--7--7--5--5--5--7--7--7--7]
[--------5--5--3--3--3--5--5--5--5]


Chorus #2 - Second Part[2of2]
...D..D..A..A..E
[--5--5--5--5--0-------------------]
[--7--7--5--5--0-------------------]
[--7--7--6--6--1-------------------]
[--7--7--7--7--2--2-2-4-2----------]
[--5--5--7--7--2----------4-2------]
[--------5--5--0-------------------]


Ending
...A..A.............A..A.............A..A.............A....A
[--0--0-------------0--0-------------0--0-------------0----0---]
[--2--2-------------2--2-------------2--2-------------2----2---]
[--2--2-------------2--2-------------2--2-------------2----2---]
[--2--2--4-----2-4--2--2--4-----2-4--2--2--4-----2-4--2----2---]
[--0--0----3-4------0--0----3-4------0--0----3-4------0----0---]
[--------------------------------------------------------------]

Those are the riffs for the song except for the solo. Now to where they go
in the song.

I don't have the lyrics but the riffs go like this:

Rhythm#1 (Repeat 3 times)
Rhythm#2
Rhythm#3
Rhythm#4

Rhythm#1
Rhythm#2
Rhythm#3
Rhythm#4

Chorus#1
Chorus#2
Chorus#1
Rhythm#4

Rhythm#1
Rhythm#2
Rhythm#3
Rhythm#4

Rhythm#1
Rhythm#2
Rhythm#3
Rhythm#4



Chorus#1
Chorus#2
Chorus#1
Rhythm#4

************SOLO***************

Chorus#1
Chorus#2
Chorus#1
Rhythm#4

Rhythm#1 (Repeat 3 times)
Rhythm#2
Rhythm#3
Rhythm#4

Rhythm#1
Rhythm#2
Rhythm#3
Rhythm#4

Chorus#1
Chorus#2
Chorus#1
Rhythm#4

Ending
            

comments powered by Disqus
↑ Back to top | Rush Tabs for In The Mood. Lyrics for acoustic guitar and electric guitar. Tablatures and chords are parodies/interpretations of the original songs. You may use it for private study, scholarship, research or language learning purposes only