>
 >
Nunca

Nunca Guitar Tabs

Rui Veloso - Nunca chords, tabs, tablatures, lyrics

Guitar lessons | Add/correct | Request | Top 50 tabs Artists:  A B C D E F G H I J K L M N O P Q R S T U V W X Y Z 0-9

Nunca Guitar Tabs – Rui Veloso

CD, Sheet music, Poster

Do you like Nunca? Share with your friends now
ChordsChords v2TabsUkulele
-------------------------------------------------------------------------------
                             Nunca me esqueci de ti - Rui veloso
-------------------------------------------------------------------------------

Tuning:normal 

Hey this is my tab for the music i havent seen any around and the only ones i saw 
were wrong so heres mine i think its pretty accurate 

anyway try playing with the song to get the timing 


Good luck hope u enjoy


Repeat intro twice

  Dadd4/C      Gmaj7          Dadd4/C  Dadd4  G 
e|----------|-------------------------------------------3-|
B|------3---|------3--------------3-------------------3-3-|
G|-----0----|-----0--------0-----0---------0--------0-----|
D|----4-----|----3-------4------4--------4--4-----0-------|
A|--3-------|--2--------------3--------5--------2---------|
E|----------|----------0----------------------------------|
         
Repeat this 4 times 

  G              Dadd9/f#        E9
e|-------3--------------0-----------------------0-------------|
B|-----3---3---3------3---3---3---------3-------------3-------|
G|---0-------0------2-------2---------0---0---0-----0---0---0-|
D|----------------------------------4-------4-----4-------4---|
A|--------------------------------2---------------------------|
E|-3--------------2-------------------------------------------|
  Cadd9          Dadd4           G
e|--------------------------------------3-------|
B|-------3--------------3-------------0---0---0-|
G|-----0---0---0------0---0---0-----3-------3---|
D|---2-------2------4-------4-------------------|
A|-3--------------5-----------------------------|
E|--------------------------------3-------------|

Repeat this 4 times aswell

   Cadd9         B7             A7       Dadd9/F#
e|-------------------------------------0--------0-------|
B|-------3--------------3------------1--------3---3---3-|
G|-----0---0---0------2---2---2----0--------2-------2---|
D|---2-------2------0-------0----2----------------------|
A|-3--------------2-------------------------------------|
E|----------------------------------------2-------------|


Intro  1 time 

Verse 2 times 

and chorus 4 times

Then this
  Dadd4/C  E9      Dadd4/C
e|-------------------------|
B|-------3-------3-------3-|
G|-----0-------0-------0---|
D|---4-------4-------4-----|
A|-3-------2-------3-------|
E|-------------------------|

Any questions just send an email (:

||


************************************

| /   slide up
| \   slide down
| h   hammer-on
| p   pull-off
| ~   vibrato
| +   harmonic
| x   Mute note
| b   Bend
| pb  Pre-bend
| br  Bend release
| pbr Pre-bend release
| brb Bend release bend

************************************





Comments


Popular Rui Veloso tabs & chords
Logo Que Passe A Mono Chords
Nao Ha Estrelas No Ceu 1 Chords
Nunca 1 Chords
O Negro Do Radio De Pilhas Chords
Paixao Chords
Porto Covo 2 Chords
Porto Sentido Chords
Nunca Ukulele
Primeiro Beijo Ukulele
Sei De Uma Camponesa Ukulele


Song lyrics



↑ Back to top | Tablatures and chords are parodies/interpretations of the original songs. You may use it for private study, scholarship, research or language learning purposes only
© 2014 AZChords.com Contact us | Privacy policy | DMCA | Add/correct tabs | Request tabs | Top 50 tabs