>
 >
In My Eyes

In My Eyes Guitar Tabs

Rufio - In My Eyes chords, tabs, tablatures, lyrics

Guitar lessons | Add/correct | Request | Top 50 tabs Artists:  A B C D E F G H I J K L M N O P Q R S T U V W X Y Z 0-9

In My Eyes Guitar Tabs – Rufio

CD, Sheet music, Poster

Do you like In My Eyes? Share with your friends now
Bass TabsBass Tabs v2Bass Tabs v3Bass Tabs v4ChordsChords v2Chords v3TabsTabs v2Tabs v3Tabs v4Tabs v5Ukulele
-------------------------------------------------------------------------------
-------------------------------------------------------------------------------


~ - let ring out
PM... - palm mute
h - hammer on
/ - slide
p - pull off
5x
5x - mute after picking
3x

GUITAR 1'S PARTS:
Intro:  Guitar 1  "You're graceful..."
e|---------------------------------------------------------------------------|
B|---------------------------------------------------------------------------|
G|8~---------------------------8~--------------------------------------------|
D|8~---5~---3~-----------------8~---5~---3~--8-8-8-8-8-8-8-8-8-8-8-8---------|
A|6~---5~---3~----8-----8------6~---5~---3~--8-8-8-8-8-8-8-8-8-8-8-8---------|
E|-----3~---1~--6---6-5---5---------3~---1~--6-6-6-6-6-6-5-5-5-5-5-5---------|
                                            PM.   PM.   PM.   PM.

Intro Cont'd:  Guitar 1  (2x) (Strumming not defined)
e|---------------------------|
B|---------------------------|
G|----------3---8------------|
D|--5---3---3---8------------|
A|--5---3---1---6------------|
E|--3---1--------------------|

Verse:  Guitar 1  "Another day left..."  (2x) (Strumming not defined)
e|---------------------------|
B|---------------------------|
G|------8---3----------------|
D|--5---8---3---3------------|
A|--5---6---1---3------------|
E|--3-----------1------------|

Pre-Chorus:  Guitar 1  "I thought that..."  (3x)
e|---------------------------------------------------------------------------|
B|---------------------------------------------------------------------------|
G|---------------------------------------------------------------------------|
D|5-5-5-5-5-8-8-8-8-8-8-8-8-8-8-8-8-8-8-8-8-8--------------------------------|
A|5-5-5-5-5-8-8-8-8-8-8-8-8-8-8-8-8-8-8-8-8-8--------------------------------|
E|3-3-3-3-3-5-5-5-5-5-6-6-6-6-6-6-6-6-6-6-6-6--------------------------------|
                           PM.   PM.   PM.

Pre Chorus Cont'd:  Guitar 1
e|---------------------------------------------------------------------------|
B|---------------------------------------------------------------------------|
G|8-8-8-8-8-8-8-8------------------------------------------------------------|
D|8-8-8-8-8-8-8-8-3-3-3-3-3-3-3-3--------------------------------------------|
A|6-6-6-6-6-6-6-6-3-3-3-3-3-3-3-3--------------------------------------------|
E|----------------1-1-1-1-1-1-1-1--------------------------------------------|

Chorus:  Guitar 1 "You're graceful..."
e|---------------------------------------------------------------------------|
B|---------------------------------------------------------------------------|
G|8-8-8-8-8-8-8-8------------------------------------------------------------|
D|8-8-8-8-8-8-8-8-5-5-5-5-5-5-5-5-3-3-3-3-3-3-3-3-8-8-8-8-8-8-8-8-8-8-8-8----|
A|6-6-6-6-6-6-6-6-5-5-5-5-5-5-5-5-3-3-3-3-3-3-3-3-8-8-8-8-8-8-8-8-8-8-8-8----|
E|----------------3-3-3-3-3-3-3-3-1-1-1-1-1-1-1-1-6-6-6-6-6-6-5-5-5-5-5-5----|
                                                 PM.   PM.   PM.   PM.

Chorus Cont'd:  Guitar 1  "You're lovely..."
e|---------------------------------------------------------------------------|
B|---------------------------------------------------------------------------|
G|8-8-8-8-8-8-8-8---------------------------------------------8~-------------|
D|8-8-8-8-8-8-8-8-5-5-5-5-5-5-5-5-3-3-3-3-3-3-3-3-------------8~-------------|
A|6-6-6-6-6-6-6-6-5-5-5-5-5-5-5-5-3-3-3-3-3-3-3-3---8-----8---6~-------------|
E|----------------3-3-3-3-3-3-3-3-1-1-1-1-1-1-1-1-6---6-5---5----------------|

Interlude:  Guitar 1  (Strumming not defined)
e|---------------------------------------------------------------------------|
B|---------------------------------------------------------------------------|
G|-----------3---8-----------------------------------------------------------|
D|---5---3---3---8---5/------------------------------------------------------|
A|---5---3---1---6---5/------------------------------------------------------|
E|---3---1-----------3/------------------------------------------------------|

Verse 2:  Guitar 1  Starts when Scott sings "With nothing left to do..."
e|------------------------------------|
B|------------------------------------|
G|---------------8---3----------------|
D|-----------5---8---3---3------------|
A|-----------5---6---1---3------------|
E|Pickslide--3-----------1------------|

Repeat Pre Chorus:  Guitar 1

2nd Chorus:  Guitar 1  "You're graceful..."
e|---------------------------------------------------------------------------|
B|---------------------------------------------------------------------------|
G|8-8-8-8-8-8-8-8------------------------------------------------------------|
D|8-8-8-8-8-8-8-8-5-5-5-5-5-5-5-5-3-3-3-3-3-3-3-3-8-8-8-8-8-8-8-8-8-8-8-8----|
A|6-6-6-6-6-6-6-6-5-5-5-5-5-5-5-5-3-3-3-3-3-3-3-3-8-8-8-8-8-8-8-8-8-8-8-8----|
E|----------------3-3-3-3-3-3-3-3-1-1-1-1-1-1-1-1-6-6-6-6-6-6-5-5-5-5-5-5----|
                                                 PM.   PM.   PM.   PM.

2nd Chorus Cont'd:  Guitar 1  "You're lovely..."
e|---------------------------------------------------------------------------|
B|---------------------------------------------------------------------------|
G|8-8-8-8-8-8-8-8---------------------------------------------8~-------------|
D|8-8-8-8-8-8-8-8-5-5-5-5-5-5-5-5-3-3-3-3-3-3-3-3-------------8~---5-5x---3~-|
A|6-6-6-6-6-6-6-6-5-5-5-5-5-5-5-5-3-3-3-3-3-3-3-3---8-----8---6~---5-5x---3~-|
E|----------------3-3-3-3-3-3-3-3-1-1-1-1-1-1-1-1-6---6-5---5------3-3x---1~-|

2nd Chorus Cont'd:  Guitar 1
e|---------------------------------------------------------------------------|
B|---------------------------------------------------------------------------|
G|-------------8~------------------------------------------------------------|
D|-------------8~---5-5x---3~------------------------------------------------|
A|--8-----8----6~---5-5x---3~-----8------------------------------------------|
E|6---6-5---5-------3-3x---1~---6---6-5x-------------------------------------|

Outro:  Guitar 1   (4x) (strumming not defined)
e|---------------------------------------------------------------------------|
B|---------------------------------------------------------------------------|
G|------8---3----------------------------------------------------------------|
D|--5---8---3---3------------------------------------------------------------|
A|--5---6---1---3------------------------------------------------------------|
E|--3-----------1------------------------------------------------------------|

End on:  Guitar 1
e|-----------------|
B|-----------------|
G|-----------------|
D|--5~---5x--------|
A|--5~---5x--------|
E|--3~---3x--------|


GUITAR 2'S PARTS:
Intro:  Guitar 2
e|---------------------------------------------------------------------------|
B|-----------------3-------3-------------------3-------3---------------------|
G|12~--12~--10~--3---3-5-3----12~--12~--10~--3---3-5-3-----------------------|
D|-x----x----x-----------------x----x----x-----------------------------------|
A|10~--10~---8~---------------10~--10~---8~----------------------------------|
E|---------------------------------------------------------------------------|

Intro Cont'd:  Guitar 2
e|---------------------------------------------------------------13-11-10----|
B|---------------------------------------------------8-10-11--11-------------|
G|------10-8-7----------10-8-7------10-8-7----7-8-10-------------------------|
D|-8--8--------8/10--10--------8--8--------10--------------------------------|
A|---------------------------------------------------------------------------|
E|---------------------------------------------------------------------------|

Intro Cont'd:  Guitar 2
e|---------13-11-10--------13-11-10------------------------------------------|
B|11/13-13----------11--11----------11/13-11-10-11-10/-----------------------|
G|---------------------------------------------------------------------------|
D|---------------------------------------------------------------------------|
A|---------------------------------------------------------------------------|
E|---------------------------------------------------------------------------|

Verse:  Guitar 2  (2x) "Another day left..."
e|---------------------------------------------------------------------------|
B|----7h10p7-----7-----7h10p7-----7-----7h10p7-----7-----7h10p7-----7--------|
G|8-8--------8-8---8-8--------8-8---8-8--------8-8---8-8--------8-8----------|
D|---------------------------------------------------------------------------|
A|---------------------------------------------------------------------------|
E|---------------------------------------------------------------------------|
 PM.        PM.   PM.        PM.   PM.        PM.   PM.        PM.

Verse Cont'd:  Guitar 2
e|---------------------------------------------------------------------------|
B|----7h10p7-----7-----7h10p7-----7-----5h7p5-----5-----5h7p5-----5----------|
G|8-8--------8-8---8-8--------8-8---7-7-------7-7---7-7-------7-7------------|
D|---------------------------------------------------------------------------|
A|---------------------------------------------------------------------------|
E|---------------------------------------------------------------------------|
 PM.        PM.   PM.        PM.   PM.       PM.   PM.       PM.

Pre Chorus:  Guitar 2 (3x)
e|---------------------------------------------------------------------------|
B|---------------------------------------------------------------------------|
G|7-7-5-5-3-3-3-5-5-7-7-7-7-7-7-7-7-7-7-7-7----------------------------------|
D|x-x-x-x-x-x-x-x-x-x-x-x-x-x-x-x-x-x-x-x-x----------------------------------|
A|5-5-3-3-1-1-1-3-3-5-5-5-5-5-5-5-5-5-5-5-5----------------------------------|
E|---------------------------------------------------------------------------|
                         PM.   PM.   PM.

Pre Chorus Cont'd:  Guitar 2
e|---------------------------------------------------------------------------|
B|---------------------------------------------------------------------------|
G|15-15-15-15-15-15-15-15-14-14-14-14-14-14-14-14----------------------------|
D|-x--x--x--x--x--x--x--x--x--x--x--x--x--x--x--x----------------------------|
A|13-13-13-13-13-13-13-13-12-12-12-12-12-12-12-12----------------------------|
E|---------------------------------------------------------------------------|

Chorus:  Guitar 2  (Play whole thing twice)
e|---------------------------------------------------------------------------|
B|---------------------------------------------------------------------------|
G|12-12-12-12-12-12-12-12-12-12-12-12-12-12-12-12-10-10-10-10-10-10-10-10----|
D|-x--x--x--x--x--x--x--x--x--x--x--x--x--x--x--x--x--x--x--x--x--x--x--x----|
A|10-10-10-10-10-10-10-10-10-10-10-10-10-10-10-10--8--8--8--8--8--8--8--8----|
E|---------------------------------------------------------------------------|

Chorus Cont'd:  Guitar 2    2nd Time Around:
e|----------------|----------------------------------------------------------|
B|--3-------3-----|---------3---3-----3--------------------------------------|
G|3---3-5-3-------|-----------3---5-3----12~---------------------------------|
D|----------------|-----------------------x----------------------------------|
A|----------------|----------------------10~---------------------------------|
E|----------------|----------------------------------------------------------|

Interlude:  Guitar 2
e|---------------------------------------------------------------------------|
B|---------------------------------------------------------------------------|
G|-----10-8-7----------10-8-7------10-8-7------------------------------------|
D|8--8--------8/10--10--------8--8--------8/10-8-7-8-7-8/--------------------|
A|---------------------------------------------------------------------------|
E|---------------------------------------------------------------------------|

Repeat Verse:  Guitar 2  (Starts with pickslide)

Repeat Pre Chorus:  Guitar 2

2nd Chorus:  Guitar 2
e|---------------------------------------------------------------------------|
B|---------------------------------------------------------------------------|
G|12-12-12-12-12-12-12-12-12-12-12-12-12-12-12-12-10-10-10-10-10-10-10-10----|
D|-x--x--x--x--x--x--x--x--x--x--x--x--x--x--x--x--x--x--x--x--x--x--x--x----|
A|10-10-10-10-10-10-10-10-10-10-10-10-10-10-10-10--8--8--8--8--8--8--8--8----|
E|---------------------------------------------------------------------------|

2nd Chorus Cont'd:  Guitar 2
e|--------------------|
B|---3-------3--------|
G|-3---3-5-3----------|
D|--------------------|
A|--------------------|
E|--------------------|

2nd Chorus Cont'd:  Guitar 2
e|---------------------------------------------------------------------------|
B|---------------------------------------------------------------------------|
G|12-12-12-12-12-12-12-12-12-12-12-12-12-12-12-12-10-10-10-10-10-10-10-10----|
D|-x--x--x--x--x--x--x--x--x--x--x--x--x--x--x--x--x--x--x--x--x--x--x--x----|
A|10-10-10-10-10-10-10-10-10-10-10-10-10-10-10-10--8--8--8--8--8--8--8--8----|
E|---------------------------------------------------------------------------|

2nd Chorus Cont'd:  Guitar 2
e|---------------------------------------------------------------------------|
B|---3-------3------------------------3-------3-----------------------3------|
G|-3---3-5-3---12~---12-12x---10~---3---3-5-3---12~---12-12x---10~--3---3-5x-|
D|--------------x-----x--x-----x-----------------x-----x--x-----x------------|
A|-------------10~---10-10x----8~---------------10~---10-10x----8~-----------|
E|---------------------------------------------------------------------------|

Outro:  Guitar 2
e|--------------------------------------------------------11-------10--------|
B|---------------------------------------------------8-10----11-11----11-11--|
G|------10-8-7----------10-8-7------10-8-7----7-8-10-------------------------|
D|-8--8--------8/10--10--------8--8--------10--------------------------------|
A|---------------------------------------------------------------------------|
E|---------------------------------------------------------------------------|
                                                            PM...    PM...

Outro Cont'd:  Guitar 2
e|11-------10-------13p11p10-11-------10-------11-------10-------13p11p10----|
B|---11-11----11-11-------------11-11----11-11----11-11----11-11-------------|
G|---------------------------------------------------------------------------|
D|---------------------------------------------------------------------------|
A|---------------------------------------------------------------------------|
E|---------------------------------------------------------------------------|
    PM...    PM...             PM...    PM...    PM...    PM...

Outro Cont'd:  Guitar 2
e|11-------10-------11-------10-------13p11p10------------------13-11-10-----|
B|---11-11----11-11----11-11----11-11----------13-11-10-11---11----------11--|
G|---------------------------------------------------------------------------|
D|---------------------------------------------------------------------------|
A|---------------------------------------------------------------------------|
E|---------------------------------------------------------------------------|
    PM...    PM...    PM...    PM...

Outro Cont'd:  Guitar 2
e|-10h11p10-----13-11-10---------------------13-11-10------10h11p10-----13-11|
B|-----------11----------11/13-11-10-11---11----------11-------------11------|
G|---------------------------------------------------------------------------|
D|---------------------------------------------------------------------------|
A|---------------------------------------------------------------------------|
E|---------------------------------------------------------------------------|

Outro Cont'd:  Guitar 2
e|10-------------------------------------------------------------------------|
B|---11/13-11-10-11-11~----11/-----------------------------------------------|
G|---------------------------------------------------------------------------|
D|---------------------------------------------------------------------------|
A|---------------------------------------------------------------------------|
E|---------------------------------------------------------------------------|





Comments


Popular Rufio tabs & chords
Don't Hate Me 1 Bass Tabs
Save The World Bass Tabs
Still Chords
Above Me 5 Tabs
Don Hate Me Tabs
Follow Me 2 Tabs
Set It Off 1 Tabs
Still 1 Tabs
Dipshit Ukulele
Selfishness Ukulele


Song lyrics



↑ Back to top | Tablatures and chords are parodies/interpretations of the original songs. You may use it for private study, scholarship, research or language learning purposes only
© 2014 AZChords.com Contact us | Privacy policy | DMCA | Add/correct tabs | Request tabs | Top 50 tabs