>
 >
Used It All Up

Used It All Up Guitar Tabs

Rudy And Blitz - Used It All Up chords, tabs, tablatures, lyrics

Guitar lessons | Add/correct | Request | Top 50 tabs Artists:  A B C D E F G H I J K L M N O P Q R S T U V W X Y Z 0-9

Used It All Up Guitar Tabs – Rudy And Blitz

CD, Sheet music, Poster

Do you like Used It All Up? Share with your friends now
Tabs
Eb :---------------------|----------------|------------------|
Bb :---------------------|----------------|------------------|
Gb :-----------9--9--9-7-|--7-7-7-7-7-7---|----------7-7-7---|
Db :-9----9-x--9--9--9-7-|--7-7-7-7-7-7---|-9----9-9-7-7-7-7-|
Ab :-9----9-x--7--7--7-5-|--5-5-5-5-5-5---|-9----9-9-5-5-5-7-|
Eb :-7----7-x------------|----------------|-7----7-7-------5-|
                                                             

Eb :---------------------|----------------|------------------|
Bb :---------------------|----------------|------------------|
Gb :---------------------|----------------|------------------|
Db :---------------------|----------------|------------------|
Ab :---------------------|----------------|------------------|
Eb :---------------------|----------------|------------------|
                                                             

Gb :----------10-10-10-8-|--8-8-8-8-8-8---|----------8-8-8---|
Db :10---10-x------------|----------------|10---10-x-------8-|
Ab :---------------------|----------------|------------------|
Eb :---------------------|----------------|------------------|

============================================================================

Eb :---------9--9--9--9--9--9--9--9|
Bb :--------12-12-12-12-12-12-12-12|
Gb :---------x--x--x--x--x--x--x--x|
Db :--7-7-7------------------------|
Ab :--7-7-7------------------------|
Eb :--5-5-5------------------------|
                                   

Eb :---------9--9--9--9--9--9--9--9|
Bb :--------12-12-12-12-12-12-12-12|
Gb :---------x--x--x--x--x--x--x--x|
Db :-------------------------------|
Ab :-------------------------------|
Eb :-------------------------------|
                                   

Gb :--------17-17-17-17-17-17-17-17|
Db :--8-8-8------------------------|
Ab :-------------------------------|
Eb :-------------------------------|

============================================================================

Eb :----------------|----------------|----------------|----------------|
Bb :----------------|----------------|----------------|----------------|
Gb :----------------|----------------|----------------|----------------|
Db :----------------|----------------|----------------|----------------|
Ab :--------4---4-2-|--2-2-2-2-2-2---|--------2---2---|----------------|
Eb :4---4-----------|----------------|4---4---------2-|--2-2-2-2-2-2-2-|
                                                                       

Eb :*---------------|----------------|----------------|----------------|
Bb :*---------------|----------------|----------------|----------------|
Gb :*---------------|----------------|----------------|----------------|
Db :----------------|----------------|----------------|----------------|
Ab :----------------|----------------|----------------|----------------|
Eb :----------------|----------------|----------------|----------------|
                                                                       

Gb :----------------|----------------|----------------|----------------|
Db :----------------|----------------|----------------|----------------|
Ab :--------4---4-2-|--2-2-2-2-2-2---|--------2---2---|----------------|
Eb :4---4-----------|----------------|4---4---------2-|--2-2-2-2-2-2-2-|

============================================================================

Eb :----------------|----------------|----------------|----------------|
Bb :----------------|----------------|----------------|----------------|
Gb :----------------|----------------|----------------|----------------|
Db :----------------|----------------|----------------|----------------|
Ab :--------4---4-2-|--2-2-2-2-2-2---|--------2---2---|----------------|
Eb :4---4-----------|----------------|4---4---------2-|--2-2-2-2-2-2-0-|
                                                                       

Eb :----------------|----------------|----------------|----------------|
Bb :----------------|----------------|----------------|----------------|
Gb :----------------|----------------|----------------|----------------|
Db :----------------|----------------|----------------|----------------|
Ab :----------------|----------------|----------------|----------------|
Eb :----------------|----------------|----------------|----------------|
                                                                       

Gb :----------------|----------------|----------------|----------------|
Db :----------------|----------------|----------------|----------------|
Ab :--------4---4-2-|--2-2-2-2-2-2---|--------2---2---|----------------|
Eb :4---4-----------|----------------|4---4---------2-|--2-2-2-2-2-2-0-|

============================================================================

Eb :----------------|------------------------|----------------|
Bb :----------------|------------------------|----------------|
Gb :----------------|------------------------|----------------|
Db :2-------------4-|------------------------|2-------------4-|
Ab :2---2-2-2-2-2-4-|------------------------|2---2-2-2-2-2-4-|
Eb :0---0-0-0-0-0-2-|/--14-14-14-14-14-14-14-|0---0-0-0-0-0-2-|
                                                              

Eb :----------------|------------------------|----------------|
Bb :----------------|------------------------|----------------|
Gb :----------------|------------------------|----------------|
Db :2-------------4-|----4--4--4--4--4--4--4-|2-------------4-|
Ab :2---2-x-x-x-2-4-|------------------------|2---2-x-x-x-2-4-|
Eb :0---0-x-x-x-0-2-|----2--2--2--2--2--2--2-|0---0-x-x-x-0-2-|
                                                              

Gb :----------------|------------------------|----------------|
Db :----------------|------------------------|----------------|
Ab :----------------|------------------------|----------------|
Eb :0---0-0-0-0-0-2-|----2--2--2--2--2--2--2-|--0---0-0-0-0-0-|

============================================================================

Eb :------------------------|----------------|------------------------|
Bb :------------------------|----------------|------------------------|
Gb :------------------------|----------------|------------------------|
Db :------------------------|2-------------4-|------------------------|
Ab :------------------------|2---2-2-2-2-2-4-|------------------------|
Eb :/--14-14-14-14-14-14-14-|0---0-0-0-0-0-2-|/--14-14-14-14-14-14-14-|
                                                                      

Eb :------------------------|----------------|------------------------|
Bb :------------------------|----------------|------------------------|
Gb :------------------------|----------------|------------------------|
Db :----4--4--4--4--4--4--4-|2-------------4-|----4--4--4--4--4--4--4-|
Ab :------------------------|2---2-x-x-x-2-4-|------------------------|
Eb :----2--2--2--2--2--2--2-|0---0-x-x-x-0-2-|----2--2--2--2--2--2--2-|
                                                                      

Gb :------------------------|----------------|------------------------|
Db :------------------------|----------------|------------------------|
Ab :------------------------|----------------|------------------------|
Eb :-2-----2--2--2--2--2--2-|--0---0-0-0-0-0-|-2-----2--2--2--2--2--2-|

============================================================================

Eb :----------------|-------------------------|
Bb :----------------|-------------------------|
Gb :----------------|-------------------------|
Db :2-------------4-|-------------------------|
Ab :2---2-2-2-2-2-4-|-------------------------|
Eb :0---0-0-0-0-0-2-|/--14-14-14-14-14-14-14--|
                                              

Eb :----------------|-------------------------|
Bb :----------------|-------------------------|
Gb :----------------|-------------------------|
Db :2-------------4-|----4--4--4--4--4--4--4r-|
Ab :2---2-x-x-x-2-4-|-----------------------r-|
Eb :0---0-x-x-x-0-2-|----2--2--2--2--2--2--2r-|
                                              

Gb :----------------|-------------------------|
Db :----------------|-------------------------|
Ab :----------------|-------------------------|
Eb :--0---0-0-0-0-0-|-2-----2--2--2--2--2--2--|

============================================================================

Eb :----------------|----------------|----------------|----------------|
Bb :----------------|----------------|----------------|----------------|
Gb :----------------|----------------|----------------|----------------|
Db :----------------|----------------|----------------|----------------|
Ab :--------4---4-2-|--2-2-2-2-2-2---|--------2---2---|----------------|
Eb :4---4-----------|----------------|4---4---------2-|--2-2-2-2-2-2-2-|
                                                                       

Eb :----------------|----------------|----------------|----------------|
Bb :----------------|----------------|----------------|----------------|
Gb :----------------|----------------|----------------|----------------|
Db :----------------|----------------|----------------|----------------|
Ab :----------------|----------------|----------------|----------------|
Eb :*---------------|----------------|----------------|----------------|
                                                                       

Gb :----------------|----------------|----------------|----------------|
Db :----------------|----------------|----------------|----------------|
Ab :--------4---4-2-|--2-2-2-2-2-2---|--------2---2---|----------------|
Eb :4---4-----------|----------------|4---4---------2-|--2-2-2-2-2-2-2-|

============================================================================

Eb :----------------|----------------|----------------|----------------|
Bb :----------------|----------------|----------------|----------------|
Gb :----------------|----------------|----------------|----------------|
Db :----------------|----------------|----------------|----------------|
Ab :--------4---4-2-|--2-2-2-2-2-2---|--------2---2-4-|--4-4-4-4-4-4---|
Eb :4---4-----------|----------------|4---4-----------|--------------0-|
                                                                       

Eb :----------------|----------------|----------------|----------------|
Bb :----------------|----------------|----------------|----------------|
Gb :----------------|----------------|----------------|----------------|
Db :----------------|----------------|----------------|----------------|
Ab :----------------|----------------|----------------|----------------|
Eb :----------------|----------------|----------------|----------------|
                                                                       

Gb :----------------|----------------|----------------|----------------|
Db :----------------|----------------|----------------|----------------|
Ab :--------4---4-2-|--2-2-2-2-2-2---|--------2---2-4-|--4-4-4-4-4-4---|
Eb :4---4-----------|----------------|4---4-----------|--------------0-|

============================================================================

Eb :----------------|------------------------|----------------|
Bb :----------------|------------------------|----------------|
Gb :----------------|------------------------|----------------|
Db :2-------------4-|------------------------|2-------------4-|
Ab :2---2-2-2-2-2-4-|------------------------|2---2-2-2-2-2-4-|
Eb :0---0-0-0-0-0-2-|/--14-14-14-14-14-14-14-|0---0-0-0-0-0-2-|
                                                              

Eb :----------------|------------------------|----------------|
Bb :----------------|------------------------|----------------|
Gb :----------------|------------------------|----------------|
Db :2-------------4-|----4--4--4--4--4--4--4-|2-------------4-|
Ab :2---2-x-x-x-2-4-|------------------------|2---2-x-x-x-2-4-|
Eb :0---0-x-x-x-0-2-|----2--2--2--2--2--2--2-|0---0-x-x-x-0-2-|
                                                              

Gb :----------------|------------------------|----------------|
Db :----------------|------------------------|----------------|
Ab :----------------|------------------------|----------------|
Eb :0---0-0-0-0-0-2-|----2--2--2--2--2--2--2-|--0---0-0-0-0-0-|

============================================================================

Eb :------------------------|----------------|------------------------|
Bb :------------------------|----------------|------------------------|
Gb :------------------------|----------------|------------------------|
Db :------------------------|2-------------4-|------------------------|
Ab :------------------------|2---2-2-2-2-2-4-|------------------------|
Eb :/--14-14-14-14-14-14-14-|0---0-0-0-0-0-2-|/--14-14-14-14-14-14-14-|
                                                                      

Eb :------------------------|----------------|------------------------|
Bb :------------------------|----------------|------------------------|
Gb :------------------------|----------------|------------------------|
Db :----4--4--4--4--4--4--4-|2-------------4-|----4--4--4--4--4--4--4-|
Ab :------------------------|2---2-x-x-x-2-4-|------------------------|
Eb :----2--2--2--2--2--2--2-|0---0-x-x-x-0-2-|----2--2--2--2--2--2--2-|
                                                                      

Gb :------------------------|----------------|------------------------|
Db :------------------------|----------------|------------------------|
Ab :------------------------|----------------|------------------------|
Eb :-2-----2--2--2--2--2--2-|--0---0-0-0-0-0-|-2-----2--2--2--2--2--2-|

============================================================================

Eb :----------------|-------------------------|
Bb :----------------|-------------------------|
Gb :----------------|-------------------------|
Db :2-------------4-|-------------------------|
Ab :2---2-2-2-2-2-4-|-------------------------|
Eb :0---0-0-0-0-0-2-|/--14-14-14-14-14-14-14r-|
                                              

Eb :----------------|-------------------------|
Bb :----------------|-------------------------|
Gb :----------------|-------------------------|
Db :2-------------4-|----4--4--4--4--4--4--4r-|
Ab :2---2-x-x-x-2-4-|-----------------------r-|
Eb :0---0-x-x-x-0-2-|----2--2--2--2--2--2--2r-|
                                              

Gb :----------------|-------------------------|
Db :----------------|-------------------------|
Ab :----------------|-------------------------|
Eb :--0---0-0-0-0-0-|-2-----2--2--2--2--2--2r-|

============================================================================

Eb :----------------|----------------|----------------|----------------|
Bb :----------------|----------------|----------------|----------------|
Gb :----------------|----------------|----------------|----------------|
Db :----------------|----------------|----------------|----------------|
Ab :----------------|----------------|----------------|----------------|
Eb :----------------|----------------|----------------|----------------|
                                                                       

Eb :----------------|----------------|----------------|----------------|
Bb :----------------|----------------|----------------|----------------|
Gb :----------------|----------------|----------------|----------------|
Db :----------------|----------------|----------------|----------------|
Ab :----------------|----------------|----------------|----------------|
Eb :----------------|----------------|----------------|----------------|
                                                                       

Gb :----------------|----------------|----------------|----------------|
Db :----------------|----------------|----------------|----------------|
Ab :----------------|----------------|----------------|----------------|
Eb :4---4-4-4-4-4-4-|4---4-4-4-4-4-4-|4---4-4-4-4-4-4-|4---4-4-4-4-4-4-|

============================================================================

Eb :----------------|----------------|----------------|----------------|
Bb :----------------|----------------|----------------|----------------|
Gb :----------------|----------------|----------------|----------------|
Db :----------------|----------------|----------------|----------------|
Ab :----------------|----------------|----------------|----------------|
Eb :----------------|----------------|----------------|----------------|
                                                                       

Eb :----------------|----------------|----------------|----------------|
Bb :----------------|----------------|----------------|----------------|
Gb :----------------|----------------|----------------|----------------|
Db :----------------|----------------|----------------|----------------|
Ab :----------------|----------------|----------------|----------------|
Eb :----------------|----------------|----------------|----------------|
                                                                       

Gb :----------------|----------------|----------------|----------------|
Db :----------------|----------------|----------------|----------------|
Ab :----------------|----------------|----------------|----------------|
Eb :4---4-4-4-4-4-4-|4---4-4-4-4-4-4-|4---4-4-4-4-4-4-|4---4-4-4-4-4-4-|

============================================================================

Eb :----------------|----------------|----------------|----------------|
Bb :----------------|----------------|----------------|----------------|
Gb :----------------|----------------|----------------|----------------|
Db :6-6-6---6---6-6-|--6---6---6---6-|6-6---6---6-6---|*-7-7-7-7-7-7---|
Ab :6-6-6---6---6-6-|--6---6---6---6-|6-6---6---6-6---|*-7-7-7-7-7-7---|
Eb :4-4-4---4---4-4-|--4---4---4---4-|4-4---4---4-4---|*-5-5-5-5-5-5---|
                                                                       

Eb :----------------|----------------|----------------|----------------|
Bb :----------------|----------------|----------------|----------------|
Gb :----------------|----------------|----------------|----------------|
Db :----------------|----------------|----------------|*-7-7-7-7-7-7---|
Ab :----------------|----------------|----------------|*-7-7-7-7-7-7---|
Eb :*---------------|----------------|----------------|*-5-5-5-5-5-5---|
                                                                       

Gb :----------------|----------------|----------------|----------------|
Db :----------------|----------------|----------------|----------------|
Ab :----------------|----------------|----------------|----------------|
Eb :4-4-4---4---4-4-|--4---4---4---4-|4-4---4---4-4---|*-5-5-5-4-4-4---|

============================================================================

Eb :----------------|----------------|----------------|----------------|
Bb :----------------|----------------|----------------|----------------|
Gb :----------------|----------------|----------------|----------------|
Db :----------------|----------------|--------*-7-7-7-|6-6-6---6---6-6-|
Ab :----------------|----------------|--------*-7-7-7-|----------------|
Eb :4---4-4---4---4-|--4-----4-4---4-|--4-4---*-5-5-5-|----------------|
                                                                       

Eb :----------------|----------------|----------------|----------------|
Bb :----------------|----------------|----------------|----------------|
Gb :----------------|----------------|----------------|----------------|
Db :----------------|----------------|--------*-7-7-7-|6-6-6---6---6-6-|
Ab :----------------|----------------|--------*-7-7-7-|----------------|
Eb :*---------------|----------------|--------*-5-5-5-|4---------------|
                                                                       

Gb :----------------|----------------|----------------|----------------|
Db :----------------|----------------|----------------|----------------|
Ab :----------------|----------------|----------------|----------------|
Eb :4---4-4---4---4-|--4---4-4-4---4-|--4-4---*-5-5-5-|4-4-4---4---4-4-|

============================================================================

Eb :----------------|----------------|----------------|----------------|
Bb :----------------|----------------|----------------|----------------|
Gb :----------------|----------------|----------------|----------------|
Db :--6---6---6---6-|6-6---6---6-6---|*-7-7-7-6-6-6---|6---6-6---6---6-|
Ab :----------------|----------------|*-7-7-7---------|----------------|
Eb :----------------|----------------|*-5-5-5---------|----------------|
                                                                       

Eb :----------------|----------------|----------------|----------------|
Bb :----------------|----------------|----------------|----------------|
Gb :----------------|----------------|----------------|----------------|
Db :--6---6---6---6-|6-6---6---6-6---|*-7-7-7-6-6-6---|6---6-6---6---6-|
Ab :----------------|----------------|*-7-7-7---------|----------------|
Eb :----------------|----------------|*-5-5-5---------|----------------|
                                                                       

Gb :----------------|----------------|----------------|----------------|
Db :----------------|----------------|----------------|----------------|
Ab :----------------|----------------|----------------|----------------|
Eb :--4---4---4---4-|4-4---4---4-4---|*-5-5-5-4-4-4---|4---4-4---4---4-|

============================================================================

Eb :----------------|----------------|----------------|----------------|
Bb :----------------|----------------|----------------|----------------|
Gb :----------------|----------------|----------------|----------------|
Db :----------------|*---------------|9-9-9-9---------|----------------|
Ab :----------------|----------------|7-7-7-7-9-9---9-|--9-9---9---9---|
Eb :----------------|----------------|--------7-7---7-|--7-7---7---7---|
                                                                       

Eb :----------------|----------------|----------------|----------------|
Bb :----------------|----------------|----------------|----------------|
Gb :----------------|----------------|----------------|----------------|
Db :----------------|*---------------|9-9-9-9---------|----------------|
Ab :----------------|----------------|7-7-7-7-9-9---9-|--9-9---9---9---|
Eb :----------------|----------------|--------7-7---7-|--7-7---7---7---|
                    echo: went,went                                    

Gb :----------------|----------------|----------------|----------------|
Db :----------------|*---------------|----------------|----------------|
Ab :----------------|----------------|7-7-7-7---------|----------------|
Eb :----------------|----------------|--------7-7---7-|--7-7---7---7---|

============================================================================

Eb :----------------|----------------|----------------|----------------|
Bb :----------------|----------------|----------------|----------------|
Gb :----------------|----------------|----------------|----------------|
Db :9-9-9-9---------|----------------|9-9-9-9---------|----------------|
Ab :7-7-7-7-9-9---9-|--9-9---9---9---|7-7-7-7-9-9---9-|--9-9---9---9---|
Eb :--------7-7---7-|--7-7---7---7---|--------7-7---7-|--7-7---7---7---|
                                                                       

Eb :----------------|----------------|----------------|----------------|
Bb :----------------|----------------|----------------|----------------|
Gb :----------------|----------------|----------------|----------------|
Db :9-9-9-9---------|----------------|9-9-9-9---------|----------------|
Ab :7-7-7-7-9-9---9-|--9-9---9---9---|7-7-7-7-9-9---9-|--9-9---9---9---|
Eb :--------7-7---7-|--7-7---7---7---|--------7-7---7-|--7-7---7---7---|
                                                                       

Gb :----------------|----------------|----------------|----------------|
Db :----------------|----------------|----------------|----------------|
Ab :7-7-7-7---------|----------------|7-7-7-7---------|----------------|
Eb :--------7-7---7-|--7-7---7---7---|--------7-7---7-|--7-7---7---7---|

============================================================================

Eb :----------------|----------------|
Bb :----------------|----------------|
Gb :----------------|----------------|
Db :9-9-9-9---------|----------------|
Ab :7-7-7-7-9-9---9-|--9-9---9---9---|
Eb :--------7-7---7-|--7-7---7---7---|
                                     

Eb :----------------|----------------|
Bb :----------------|----------------|
Gb :----------------|----------------|
Db :9-9-9-9---------|----------------|
Ab :7-7-7-7-9-9---9-|--9-9---9---9---|
Eb :--------7-7---7-|--7-7---7---7---|
                                     

Gb :----------------|----------------|
Db :----------------|----------------|
Ab :7-7-7-7---------|----------------|
Eb :--------7-7---7-|--7-7---7---7---|

============================================================================

Eb :----------------|----------------|----------------|----------------|
Bb :----------------|----------------|----------------|----------------|
Gb :----------------|----------------|----------------|----------------|
Db :----------------|----------------|----------------|----------------|
Ab :--------4---4-2-|--2-2-2-2-2-2---|--------2---2---|----------------|
Eb :4---4-----------|----------------|4---4---------2-|--2-2-2-2-2-2-2-|
                                                                       

Eb :----------------|----------------|----------------|----------------|
Bb :----------------|----------------|----------------|----------------|
Gb :----------------|----------------|--------4-4-4-6-|6-6-6-6-6-6-6-6-|
Db :----------------|----------------|6-6-6-6---------|----------------|
Ab :*---------------|----------------|----------------|----------------|
Eb :*---------------|----------------|----------------|----------------|
                                                                       

Gb :----------------|----------------|----------------|----------------|
Db :----------------|----------------|----------------|----------------|
Ab :--------4---4-2-|--2-2-2-2-2-2---|--------2---2---|----------------|
Eb :4---4-----------|----------------|4---4---------2-|--2-2-2-2-2-2-2-|

============================================================================

Eb :----------------|----------------|----------------|----------------|
Bb :----------------|----------------|----------------|----------------|
Gb :----------------|----------------|----------------|----------------|
Db :----------------|----------------|----------------|----------------|
Ab :--------4---4-2-|--2-2-2-2-2-2---|--------2---2-4-|--4-4-4-4-4-4---|
Eb :4---4-----------|----------------|4---4-----------|--------------0-|
                                                                       

Eb :x-x-x-x-x-x-x-x-|x-x-x-x-x-x-x-x-|----------------|----------------|
Bb :x-x-x-x-x-x-x-x-|x-x-x-x-x-x-x-x-|----------------|----------------|
Gb :x-x-x-x-x-x-x-x-|x-x-x-x-x-x-x-x-|--------4-4-4-6-|6-6-6-6-6-6-6-6-|
Db :x-x-x-x-x-x-x-x-|x-x-x-x-x-x-x-x-|6-6-6-6---------|----------------|
Ab :x-x-x-x-x-x-x-x-|x-x-x-x-x-x-x-x-|----------------|----------------|
Eb :x-x-x-x-x-x-x-x-|x-x-x-x-x-x-x-x-|----------------|----------------|
                                                                       

Gb :----------------|----------------|----------------|----------------|
Db :----------------|----------------|----------------|----------------|
Ab :--------4---4-2-|--2-2-2-2-2-2---|--------2---2-4-|--4-4-4-4-4-4---|
Eb :4---4-----------|----------------|4---4-----------|--------------0-|

============================================================================

Eb :----------------|----------------|----------------|----------------|
Bb :----------------|----------------|----------------|----------------|
Gb :----------------|----------------|----------------|----------------|
Db :2-------------4-|--4-4-4-4-4-4-4-|2-------------4-|--4-4-4-4-4-4-4-|
Ab :2---2-x-2-x-2-4-|--4-4-4-4-4-4-4-|2---2-x-2-x-2-4-|--4-4-4-4-4-4-4-|
Eb :0---0-x-0-x-0-2-|--2-2-2-2-2-2-2-|0---0-x-0-x-0-2-|--2-2-2-2-2-2-2-|
                                                                       

Eb :----------------|----------------|----------------|----------------|
Bb :----------------|----------------|----------------|----------------|
Gb :----------------|----------------|----------------|----------------|
Db :2-------------4-|--4-4-4-4-4-4-4-|2-------------4-|--4-4-4-4-4-4-4-|
Ab :2---2-x-x-x-2-4-|----------------|2---2-x-x-x-2-4-|----------------|
Eb :0---0-x-x-x-0-2-|--2-2-2-2-2-2-2-|0---0-x-x-x-0-2-|--2-2-2-2-2-2-2-|
                                                                       

Gb :----------------|----------------|----------------|----------------|
Db :----------------|----------------|----------------|----------------|
Ab :----------------|----------------|----------------|----------------|
Eb :0---0-0-0-0-0-2-|--2-2-2-2-2-2-2-|--0---0-0-0-0-0-|2---2-2-2-2-2-2-|

============================================================================

Eb :----------------|----------------|----------------|----------------|
Bb :----------------|----------------|----------------|----------------|
Gb :----------------|----------------|----------------|----------------|
Db :2-------------4-|--4-4-4-4-4-4-4-|2-------------4-|--4-4-4-4-4-4-4-|
Ab :2---2-x-2-x-2-4-|--4-4-4-4-4-4-4-|2---2-x-2-x-2-4-|--4-4-4-4-4-4-4-|
Eb :0---0-x-0-x-0-2-|--2-2-2-2-2-2-2-|0---0-x-0-x-0-2-|--2-2-2-2-2-2-2-|
                                                                       

Eb :----------------|----------------|----------------|----------------|
Bb :----------------|----------------|----------------|----------------|
Gb :----------------|----------------|----------------|----------------|
Db :2-------------4-|--4-4-4-4-4-4-4-|2-------------4-|--4-4-4-4-4-4-4-|
Ab :2---2-x-x-x-2-4-|----------------|2---2-x-x-x-2-4-|----------------|
Eb :0---0-x-x-x-0-2-|--2-2-2-2-2-2-2-|0---0-x-x-x-0-2-|--2-2-2-2-2-2-2-|
                                                                       

Gb :----------------|----------------|----------------|----------------|
Db :----------------|----------------|----------------|----------------|
Ab :----------------|----------------|----------------|----------------|
Eb :--0---0-0-0-0-0-|2---2-2-2-2-2-2-|--0---0-0-0-0-0-|2---2-2-2-2-2-2-|

============================================================================

Eb :----------------|----------------|----------------|----------------|
Bb :----------------|----------------|----------------|----------------|
Gb :----------------|----------------|----------------|----------------|
Db :----------------|----------------|----------------|------7-7-7-7-7-|
Ab :----------------|----------------|----------------|------7-7-7-7-7-|
Eb :4-4-4---4---4-4-|--4---4---4-----|4-4---4---4-4-4-|4-4---5-5-5-5-5-|
                                                                       

Eb :----------------|----------------|----------------|----------------|
Bb :----------------|----------------|----------------|----------------|
Gb :----------------|----------------|----------------|----------------|
Db :----------------|----------------|----------------|*-7-7-7---------|
Ab :----------------|----------------|----------------|*-7-7-7---------|
Eb :*---------------|----------------|----------------|*-5-5-5-*-------|
                                                                       

Gb :----------------|----------------|----------------|----------------|
Db :----------------|----------------|----------------|----------------|
Ab :----------------|----------------|----------------|----------------|
Eb :4-4-4---4---4-4-|--4---4---4---4-|4-4---4---4-4---|*-5-5-5-4-4-4---|

============================================================================

Eb :----------------|----------------|----------------|----------------|
Bb :----------------|----------------|----------------|----------------|
Gb :----------------|----------------|----------------|----------------|
Db :----------------|----------------|--------*-7-7-7-|6-6-6---6---6-6-|
Ab :----------------|----------------|--------*-7-7-7-|----------------|
Eb :4---4-4---4---4-|--4-----4-4---4-|--4-4---*-5-5-5-|----------------|
                                                                       

Eb :----------------|----------------|----------x-x-x-|----------------|
Bb :----------------|----------------|----------x-x-x-|----------------|
Gb :----------------|----------------|----------x-x-x-|----------------|
Db :----------------|----------------|--------*-x-x-x-|6-6-6---6---6-6-|
Ab :----------6---6-|--6---6-6-6---6-|--6-6---*-x-x-x-|----------------|
Eb :----------4---4-|--4---4-4-4---4-|--4-4---*-x-x-x-|4---------------|
                                               w/ env elope            

Gb :----------------|----------------|----------------|----------------|
Db :----------------|----------------|----------------|----------------|
Ab :----------------|----------------|----------------|----------------|
Eb :4---4-4---4---4-|--4---4-4-4---4-|--4-4---*-5-5-5-|4-4-4---4---4-4-|

============================================================================

Eb :----------------|----------------|--x-x-x---------|----------------|
Bb :----------------|----------------|--x-x-x---------|----------------|
Gb :----------------|----------------|--x-x-x---------|----------------|
Db :--6---6---6-----|6-6---6---6-6---|*-x-x-x---------|--------------6-|
Ab :----------------|----------------|*-x-x-x---------|----------------|
Eb :----------------|----------------|*-x-x-x---------|----------------|
                                                                       

Eb :----------------|----------------|--x-x-x---------|----------------|
Bb :----------------|----------------|--x-x-x---------|----------------|
Gb :----------------|----------------|--x-x-x---------|----------------|
Db :--6---6---6---6-|6-6---6---6-6---|*-x-x-x-6-6-6---|6---6-6---6---6-|
Ab :----------------|----------------|*-x-x-x---------|----------------|
Eb :----------------|----------------|*-x-x-x---------|----------------|
                                       enevlope filte rs               

Gb :----------------|----------------|----------------|----------------|
Db :----------------|----------------|----------------|----------------|
Ab :----------------|----------------|----------------|----------------|
Eb :--4---4---4---4-|4-4---4---4-4---|*-5-5-5-4-4-4---|4---4-4---4---4-|

============================================================================

Eb :----------------|----------------|
Bb :----------------|----------------|
Gb :----------------|----------------|
Db :----------------|*---------------|
Ab :----------------|----------------|
Eb :----------------|----------------|
                                     

Eb :----------------|----------------|
Bb :----------------|----------------|
Gb :----------------|----------------|
Db :----------------|*---------------|
Ab :----------------|----------------|
Eb :----------------|----------------|
                    echo: went,went  

Gb :----------------|----------------|
Db :----------------|*---------------|
Ab :----------------|----------------|
Eb :----------------|----------------|

============================================================================

Eb :----------------|----------------|----------------|----------------|
Bb :----------------|----------------|----------------|----------------|
Gb :----------------|----------------|----------------|----------------|
Db :6-6-6-6---------|----------------|7-7-7-7---------|----------------|
Ab :4-4-4-4-6-6-x-6-|--6-6-x-6-x-6---|5-5-5-5-6-6-x-6-|--6-6---6---6---|
Eb :--------4-4-x-4-|--4-4-x-4-x-4---|--------4-4-x-4-|--4-4-x-4-x-4---|
                                                                       

Eb :----------------|----------------|----------------|----------------|
Bb :----------------|----------------|----------------|----------------|
Gb :----------------|----------------|----------------|----------------|
Db :6-6-6-6---------|----------------|7-7-7-7---------|----------------|
Ab :4-4-4-4-6-6-x-6-|--6-6-x-6-x-6---|5-5-5-5-6-6-x-6-|--6-6---6---6---|
Eb :--------4-4-x-4-|--4-4-x-4-x-4---|--------4-4-x-4-|--4-4-x-4-x-4---|
                                                                       

Gb :----------------|----------------|----------------|----------------|
Db :----------------|----------------|----------------|----------------|
Ab :4-4-4-4---------|----------------|5-5-5-5---------|----------------|
Eb :--------4-4-x-4-|--4-4-x-4-x-4---|--------4-4-x-4-|--4-4-x-4-x-4---|

============================================================================

Eb :----------------|----------------|----------------|----------------|
Bb :----------------|----------------|----------------|----------------|
Gb :----------------|----------------|----------------|----------------|
Db :6-6-6-6---------|----------------|7-7-7-7---------|----------------|
Ab :4-4-4-4-6-6-x-6-|--6-6-x-6-x-6---|5-5-5-5-6-6-x-6-|--6-6---6---6---|
Eb :--------4-4-x-4-|--4-4-x-4-x-4---|--------4-4-x-4-|--4-4-x-4-x-4---|
                                                                       

Eb :----------------|----------------|----------------|----------------|
Bb :----------------|----------------|----------------|----------------|
Gb :----------------|----------------|----------------|----------------|
Db :6-6-6-6---------|----------------|7-7-7-7---------|----------------|
Ab :4-4-4-4-6-6-x-6-|--6-6-x-6-x-6---|5-5-5-5-6-6-x-6-|--6-6---6---6---|
Eb :--------4-4-x-4-|--4-4-x-4-x-4---|--------4-4-x-4-|--4-4-x-4-x-4---|
                                                                       

Gb :----------------|----------------|----------------|----------------|
Db :----------------|----------------|----------------|----------------|
Ab :4-4-4-4---------|----------------|5-5-5-5---------|----------------|
Eb :--------4-4-x-4-|--4-4-x-4-x-4---|--------4-4-x-4-|--4-4-x-4-x-4---|

============================================================================

Eb :----------------|----------------|----------------|----------------|
Bb :----------------|----------------|----------------|----------------|
Gb :----------------|----------------|----------------|----------------|
Db :6-6-6-6---------|----------------|7-7-7-7---------|----------------|
Ab :4-4-4-4-6-6-x-6-|--6-6-x-6-x-6---|5-5-5-5-6-6-x-6-|--6-6---6---6---|
Eb :--------4-4-x-4-|--4-4-x-4-x-4---|--------4-4-x-4-|--4-4-x-4-x-4---|
                                                                       

Eb :----------------|----------------|----------------|----------------|
Bb :----------------|----------------|----------------|----------------|
Gb :----------------|----------------|----------------|----------------|
Db :6-6-6-6---------|----------------|7-7-7-7---------|----------------|
Ab :4-4-4-4-6-6-x-6-|--6-6-x-6-x-6---|5-5-5-5-6-6-x-6-|--6-6---6---6---|
Eb :--------4-4-x-4-|--4-4-x-4-x-4---|--------4-4-x-4-|--4-4-x-4-x-4---|
                                                                       

Gb :----------------|----------------|----------------|----------------|
Db :----------------|----------------|----------------|----------------|
Ab :4-4-4-4---------|----------------|5-5-5-5---------|----------------|
Eb :--------4-4-x-4-|--4-4-x-4-x-4---|--------4-4-x-4-|--4-4-x-4-x-4---|





Comments


Popular Rudy And Blitz tabs & chords
Turtle Frown Bass Tabs
Abc Tabs
Be A Loaf Tabs
Carmel My Dog Tabs
Just About Done Tabs
Shes So Brown Tabs
Teach Tabs
Thanks Anyway Tabs
Turtle Frown Tabs
Type Of Thing 1 Tabs


Song lyrics



↑ Back to top | Tablatures and chords are parodies/interpretations of the original songs. You may use it for private study, scholarship, research or language learning purposes only
© 2014 AZChords.com Contact us | Privacy policy | DMCA | Add/correct tabs | Request tabs | Top 50 tabs