» » »

Rudy And Blitz, Turtle Frown Bass tabs (ver.1)

Artists:  A B C D E F G H I J K L M N O P Q R S T U V W X Y Z # 

Turtle Frown Bass tabs (ver.1)

Rudy And Blitz Tabs
 Rating:
4/5 (4 votes)
Turtle Frown lessons Tabs too difficult? Try these video lessons and learn fast
1
                Rudy & Blitz
"Turtle Frown"
Reverb on the Click
Tuning: Half Step Down - Eb Ab Db Gb


Only these three parts throughout the whole song.

Intro/Verse
Gb:-------------------------------|
Db:-------------------------------|
Ab:----7-5h7-7-7---5h7-7-7--------|
Eb:--0----------------------5555--|

Chorus (3x)                     | End with this
Gb:-----------------------------|-----------------------|
Db:-----------------------------|-----------------------|
Ab:--444--2-x-2-----------------|-444-222---------------|
Eb:--------------0--00-000-000--|---------00-0000-0000--|

Breakdown/Solo
Gb:------------------------|
Db:------------------------|
Ab:-----44-4444-4444-2222--|
Eb:--00--------------------|
            
Submit corrections

comments powered by Disqus
↑ Back to top | Rudy And Blitz Bass for Turtle Frown. Lyrics for acoustic guitar and electric guitar. 1 Tablatures and chords are parodies/interpretations of the original songs. You may use it for private study, scholarship, research or language learning purposes only