» » »

Rudy And Blitz, Turtle Frown Tabs (ver.1)

Artists:  A B C D E F G H I J K L M N O P Q R S T U V W X Y Z # 

Turtle Frown Tabs (ver.1)

Rudy And Blitz Tabs
 Rating:
4/5 (4 votes)
Turtle Frown lessons Tabs too difficult? Try these video lessons and learn fast
                Tuning: Half Step Down (Eb Ab Db Gb Bb Eb)


This is everything you need except the wah'd up solo. 
I don't have a wah and can't make it out very well.


Intro Verse - "I am myself.." - Quick slides here.
|--------------------------|----------------------------|
|--------------------------|----------------------------|
|----9--7/999--7/999-------|----9--7/999--7/999---------|
|-9--9--7/999--7/999--7777-|-9--9--7/999--7/999---------|
|-7--7--5/777--5/777--7777-|-7--7--5/797--5/777--9b11r9-|
|-0-------------------5555-|-0--------------------------|


Verse Variation - Changes at "Yeah, you know I'm life's bad seed"
|------------------------|
|------------------------|
|-------------------2222-|
|-2--2--2222--2222--2222-|
|-2--2--2222--2222--0000-|
|-0--0--0000--0000-------|



Chorus - 0's after the X mute are just random notes.

"I'm wearin' a turtle frown.."
|----------0----------------|
|----------0----------------|
|-666-4--x------------------|
|-666-4--x----2-22--22-2222-|
|-444-2--x----2-22--22-2222-|
|-------------0-00--00-0000-|

"Everything gets me down.."
|------------------------------------------------|
|------------------------------------------------|
|-13-13-13--11/13/11-x-9--/13-13-13--13-13-13-13-|
|-x--x--x---x--x---x-x-x---x--x--x---x--x--x--x--|
|-11-11-11--9-/11/-9-x-7--/11-11-11--11-11-11-11-|
|------------------------------------------------|

GUITAR 2
|----------------------------------|
|----------------------------------|
|-13-13-13--11/13/11-x-9--999-9999-|
|-x--x--x---x--x---x-x-x--xxx-xxxx-|
|-11-11-11--9-/11/-9-x-7--777-7777-|
|----------------------------------|

"I don't wanna work things out.."
|----------0----------------|
|----------0----------------|
|-666-4--x------------------|
|-666-4--x----2-22--22-2222-|
|-444-2--x----2-22--22-2222-|
|-------------0-00--00-0000-|

End on (All Palm Muted)
"I wear an eternal frown."
|-----------------------------|
|-----------------------------|
|-----------------------------|
|-----------------------------|
|-11-11-11-999---77-7777-7777-|
|-9--9--9--777---00-0000-0000-|


Breakdown - "Oh, oh oh oh"
This is hard to make out on the album, but it's how he played it live.
|----------------------|
|----------------------|
|----66-6666-6666-4444-|
|-2--66-6666-6666-4444-|
|-2--44-4444-4444-2222-|
|-0--------------------|
            
Submit corrections

comments powered by Disqus
↑ Back to top | Rudy And Blitz Tabs for Turtle Frown. Lyrics for acoustic guitar and electric guitar. Tablatures and chords are parodies/interpretations of the original songs. You may use it for private study, scholarship, research or language learning purposes only