>
 >
Thanks Anyway

Thanks Anyway Guitar Tabs

Rudy And Blitz - Thanks Anyway chords, tabs, tablatures, lyrics

Guitar lessons | Add/correct | Request | Top 50 tabs Artists:  A B C D E F G H I J K L M N O P Q R S T U V W X Y Z 0-9

Thanks Anyway Guitar Tabs – Rudy And Blitz

CD, Sheet music, Poster

Do you like Thanks Anyway? Share with your friends now
Tabs
                    Chad Ginsburg Ry them Guitar
Eb :----------------|----------------|----------------|
Bb :----------------|----------------|----------------|
Gb :----------------|----------------|----------------|
Db :----------------|----------------|----------------|
Ab :----------------|----------------|----------------|
Eb :----------------|----------------|----------------|

                    Dave Kloos Bass
Gb :----------------|----------------|----------------|
Db :----------------|----------------|----------------|
Ab :----------------|----------------|----------------|
Eb :----------------|----------------|----------------|

                    Chad Ginsburg Lead Guitar
Eb :----------------|----------------|----------------|
Bb :----------------|----------------|----------------|
Gb :----------------|----------------|----------------|
Db :----------------|----------------|----------------|
Ab :----------------|----------------|----------------|
Eb :----------------|----------------|----------------|

============================================================================

    Verse ("Think you wanna know so much about me)
Eb :-----------------|----------------|----------------|----------------|
Bb :-----------------|----------------|----------------|----------------|
Gb :----9--*---------|------------9--*|----------------|--9-*-9-*-------|
Db :----9-------11--*|----7--*----9---|----7-*-----7-*-|--9---9---7-*-7-|
Ab :7---7--*----11---|----7-------7--*|----7-------7---|--7-*-7-*-7---7-|
Eb :--------9----9--*|5---5--*--------|5---5-------5-*-|----------5-*-5-|


Gb :-----------------|----------------|----------------|----------------|
Db :-----------------|----------------|----------------|----------------|
Ab :7---7------------|--------7-7-7-7-|--------------7-|7-7-7-7-7-------|
Eb :------0-9----9-0-|5---5-5---------|5---5-5-5---0---|----------0-5-7-|


Eb :-----------------|----------------|----------------|----------------|
Bb :-----------------|----------------|----------------|----------------|
Gb :-----------------|----------------|----------------|----------------|
Db :-----------------|----------------|----------------|----------------|
Ab :-----------------|----------------|----------------|----------------|
Eb :-----------------|----------------|----------------|----------------|

============================================================================


Eb :-----------------|----------------|----------------|----------------|
Bb :-----------------|----------------|----------------|----------------|
Gb :----9------------|------------9---|----------------|----9--*--------|
Db :9---9--*----11--*|----7--*----9---|----7--*----7--*|----9-------7--*|
Ab :7---7-------11---|----7---7---7---|----7-------7---|----7--*----7---|
Eb :--------9----9---|5---5--*--------|*---5--*----5--*|------------5--*|


Gb :-----------------|----------------|----------------|----------------|
Db :-----------------|----------------|----------------|----------------|
Ab :7---7------------|--------7-7-7-7-|--------------7-|7-7-7-7-7-------|
Eb :------0-9----9-0-|5---5-5---------|5---5-5-5---0---|----------0-5-7-|


Eb :-----------------|----------------|----------------|----------------|
Bb :-----------------|----------------|----------------|----------------|
Gb :-----------------|----------------|----------------|----------------|
Db :-----------------|----------------|----------------|----------------|
Ab :-----------------|----------------|----------------|----------------|
Eb :-----------------|----------------|----------------|----------------|

============================================================================


Eb :-----------------|----------------|----------------|----------------|
Bb :-----------------|----------------|----------------|----------------|
Gb :----9------------|------------9---|----------------|--9-9-9-9-9-9-9-|
Db :9---9--*----11--*|----7--*----9--*|----7-x-----7-x-|--9-9-9-9-7-7-7-|
Ab :7---7-------11---|7---7---7---7---|------x-------x-|--7-7-7-7-7-7-7-|
Eb :0-------9----9---|5---5---0---0---|5---5-------5---|----------------|


Gb :-----------------|----------------|----------------|----------------|
Db :-----------------|----------------|----------------|----------------|
Ab :7---7------------|--------7-7-7-7-|--------------7-|7-7-7-7-7-------|
Eb :------0-9----9-0-|5---5-5---------|5---5-5-5---0---|----------0-5-7-|


Eb :-----------------|----------------|----------------|----------------|
Bb :-----------------|----------------|----------------|----------------|
Gb :-----------------|----------------|----------------|----------------|
Db :-----------------|----------------|----------------|----------------|
Ab :-----------------|----------------|----------------|----------------|
Eb :-----------------|----------------|----------------|----------------|

============================================================================


Eb :-----------------|-------------------------|----------------|
Bb :-----------------|-------------------------|----------------|
Gb :----9--*---------|--------------------9---*|----------------|
Db :9---9--*----11--*|----7----*----------9----|----7--*----7--*|
Ab :7---7--*---------|--------(7)(7)-(7)--7---*|----7-------7---|
Eb :0---*--------9--*|----5---(0)(0)-(0)-(0)---|5---5--*----5--*|


Gb :-----------------|-------------------------|----------------|
Db :-----------------|-------------------------|----------------|
Ab :7---7------------|------------7---7---7--7-|--------------7-|
Eb :------0-9----9-0-|5---5-5------------------|5---5-5-5---0---|


Eb :-----------------|-------------------------|----------------|
Bb :-----------------|-------------------------|----------------|
Gb :-----------------|-------------------------|----------------|
Db :-----------------|-------------------------|----------------|
Ab :-----------------|-------------------------|----------------|
Eb :-----------------|-------------------------|----------------|

============================================================================


Eb :--------5p-4p-0---|
Bb :------------------|
Gb :------------------|
Db :----7--*----------|
Ab :----7-------------|
Eb :----5--*----------|


Gb :------------------|
Db :------------------|
Ab :7-7-7-7-7---------|
Eb :-----------0--5-7-|


Eb :------------------|
Bb :------------------|
Gb :------------------|
Db :------------------|
Ab :------------------|
Eb :------------------|

============================================================================

    Chorus ("Hey don't be ashamed..)
Eb :-------------------|----------------|------------------|
Bb :-------------------|----------------|------------------|
Gb :---------------7-x-|----------------|--------4-4b-5r-4-|
Db :----5--x-------7-x-|----------------|5-----*-----------|
Ab :----5--x--5----5-x-|5---5---5-------|3-----------------|
Eb :3---3--x-----------|3---3---3-------|------------------|


Gb :-------------------|----------------|------------------|
Db :-------------------|----------------|------------------|
Ab :-------------------|----------------|------------------|
Eb :3---3-10-10---10-2-|3---3-3-3-3-3-3-|8---8-8-8-8--8--8-|


Eb :-------------------|----------------|------------------|
Bb :-------------------|----------------|------------------|
Gb :-------------------|----------------|------------------|
Db :-------------------|----------------|------------------|
Ab :-------------------|----------------|------------------|
Eb :-------------------|----------------|------------------|

============================================================================


Eb :----------------|-------------------|----------------|----------------|
Bb :----------------|-------------------|----------------|----------------|
Gb :--------4-5-4-2-|---------------7-x-|----------------|----------------|
Db :----------------|----5--x-------7-x-|----------------|5-----*-5-------|
Ab :----------------|----5--x--5----5-x-|5---5---5-------|3---------------|
Eb :----------------|3---3--x-----------|3---3---3-------|----------------|


Gb :----------------|-------------------|----------------|----------------|
Db :----------------|-------------------|----------------|----------------|
Ab :----------------|-------------------|----------------|----------------|
Eb :8-8-8-8-8-8-8-8-|3---3-10-10---10-2-|3---3-3-3-3-3-3-|8---8-8-8-8-8-8-|


Eb :----------------|-------------------|----------------|----------------|
Bb :----------------|-------------------|----------------|----------------|
Gb :----------------|-------------------|----------------|----------------|
Db :----------------|-------------------|----------------|----------------|
Ab :----------------|-------------------|----------------|----------------|
Eb :----------------|-------------------|----------------|----------------|

============================================================================


Eb :----------------|----------------|----------------|----------------|
Bb :----------------|----------------|----------------|----------------|
Gb :----------------|------------7-x-|----------------|----------------|
Db :------5-7---5---|----5-x-----7-x-|----------------|5---5---5-------|
Ab :--------------5-|----5-x-5---5-x-|5---5---5-------|3---3---3-------|
Eb :----------------|3---3-x---------|3---3---3-------|----------------|


Gb :----------------|----------------|----------------|----------------|
Db :----------------|----------------|----------------|----------------|
Ab :----------------|----------------|----------------|3---3-3-3-3-3-3-|
Eb :8-8-8-8-8-8-8-8-|3---3-3-2---2-2-|3---3-3-3-3-3-3-|----------------|


Eb :----------------|----------------|----------------|----------------|
Bb :----------------|----------------|----------------|----------------|
Gb :----------------|----------------|----------------|----------------|
Db :----------------|----------------|----------------|----------------|
Ab :----------------|----------------|----------------|----------------|
Eb :----------------|----------------|----------------|----------------|

============================================================================


Eb :----------------|----------------|----------------|----------------|
Bb :----------------|----------------|----------------|----------------|
Gb :----------------|------------7-x-|----------------|----------------|
Db :----------------|----5-x-----7-x-|----------------|5-------5---5---|
Ab :----------------|----5-x-5---5-x-|5---5---5-------|3-------3---3---|
Eb :----------------|3---3-x---------|3---3---3-------|----------------|


Gb :----------------|----------------|----------------|----------------|
Db :----------------|----------------|----------------|----------------|
Ab :3-3-3-3-3-3-3-3-|----------------|----------------|3---3-3-3-3-3-3-|
Eb :----------------|3---3-3-2---2-2-|3---3-3-3-3-3-3-|----------------|


Eb :----------------|----------------|----------------|----------------|
Bb :----------------|----------------|----------------|----------------|
Gb :----------------|----------------|----------------|----------------|
Db :----------------|----------------|----------------|----------------|
Ab :----------------|----------------|----------------|----------------|
Eb :----------------|----------------|----------------|----------------|

============================================================================


Eb :----------------|
Bb :----------------|
Gb :----------------|
Db :5-5-5-----------|
Ab :3-3-3-----------|
Eb :----------------|


Gb :----------------|
Db :----------------|
Ab :3-3-3-3-3-------|
Eb :----------0-2-3-|


Eb :----------------|
Bb :----------------|
Gb :----------------|
Db :----------------|
Ab :----------------|
Eb :----------------|

============================================================================

    "I don't wanna hear what you're sayin"
Eb :----------------|----------------|----------------|
Bb :----------------|----------------|----------------|
Gb :----6-*---------|----6-*---------|----6-------6---|
Db :----6-*-----6-*-|----6-*-----4-*-|----6-------6---|
Ab :4---4-*-----6-*-|4---4-*-----4-*-|4---4-------4---|
Eb :--------4---4-*-|--------2---2-*-|----------------|


Gb :----------------|----------------|----------------|
Db :----------------|----------------|----------------|
Ab :4---4-----------|4---4-----------|4---4-4-4-4-4-4-|
Eb :------4-4---4-4-|------2-2---2-2-|----------------|


Eb :----------------|----------------|----------------|
Bb :----------------|----------------|----------------|
Gb :----------------|----------------|----------------|
Db :----------------|----------------|----------------|
Ab :----------------|----------------|----------------|
Eb :----------------|----------------|----------------|

============================================================================


Eb :-----------------------|----------------|----------------|
Bb :-----------------------|----------------|----------------|
Gb :--6^-6^-6^-6r-6r-6r-6r-|----6-*---------|----6-*---------|
Db :--6^-6^-6^-6r-6r-6r-6r-|----6-*-----6-*-|----6-*-----4-*-|
Ab :--4^-4^-4^-4r-4r-4r-4r-|4---4-*-----6-*-|4---4-*-----4-*-|
Eb :-----------------------|--------4---4-*-|--------2---2-*-|


Gb :-----------------------|----------------|----------------|
Db :-----------------------|----------------|----------------|
Ab :--4--4--4--4--4--4--4--|4---4-----------|4---4-----------|
Eb :-----------------------|------4-4---4-4-|------2-2---2-2-|


Eb :-----------------------|----------------|----------------|
Bb :-----------------------|----------------|----------------|
Gb :-----------------------|----------------|----------------|
Db :-----------------------|----------------|----------------|
Ab :-----------------------|----------------|----------------|
Eb :-----------------------|----------------|----------------|

============================================================================


Eb :----------------|----------------------|
Bb :----------------|----------------------|
Gb :----6-------6---|--6^-6^-6^-6r-6r-6r-6-|
Db :----6-------6---|--6^-6^-6^-6r-6r-6r-6-|
Ab :4---4-------4---|--4^-4^-4^-4r-4r-4r-4-|
Eb :----------------|----------------------|


Gb :----------------|----------------------|
Db :----------------|----------------------|
Ab :4---4-4-4-4-4-4-|--4--4--4--4--4--4--4-|
Eb :----------------|----------------------|


Eb :----------------|----------------------|
Bb :----------------|----------------------|
Gb :----------------|----------------------|
Db :----------------|----------------------|
Ab :----------------|----------------------|
Eb :----------------|----------------------|

============================================================================


Eb :-----------------|----------------|----------------|----------------|
Bb :-----------------|----------------|----------------|----------------|
Gb :----9--*---------|------------9--*|----------------|--9-*-9-*-------|
Db :----9-------11--*|----7--*----9---|----7-*-----7-*-|--9---9---7-*-7-|
Ab :7---7--*----11---|----7-------7--*|----7-------7---|--7-*-7-*-7---7-|
Eb :--------9----9--*|5---5--*--------|5---5-------5-*-|----------5-*-5-|


Gb :-----------------|----------------|----------------|----------------|
Db :-----------------|----------------|----------------|----------------|
Ab :7---7------------|--------7-7-7-7-|--------------7-|7-7-7-7-7-------|
Eb :------0-9----9-0-|5---5-5---------|5---5-5-5---0---|----------0-5-7-|


Eb :-----------------|----------------|----------------|----------------|
Bb :-----------------|----------------|----------------|----------------|
Gb :-----------------|----------------|----------------|----------------|
Db :-----------------|----------------|----------------|----------------|
Ab :-----------------|----------------|----------------|----------------|
Eb :-----------------|----------------|----------------|----------------|

============================================================================


Eb :-----------------|----------------|----------------|----------------|
Bb :-----------------|----------------|----------------|----------------|
Gb :----9------------|------------9---|----------------|----9--*--------|
Db :9---9--*----11--*|----7--*----9---|----7--*----7--*|----9-------7--*|
Ab :7---7-------11---|----7---7---7---|----7-------7---|----7--*----7---|
Eb :--------9----9---|5---5--*--------|*---5--*----5--*|------------5--*|


Gb :-----------------|----------------|----------------|----------------|
Db :-----------------|----------------|----------------|----------------|
Ab :7---7------------|--------7-7-7-7-|--------------7-|7-7-7-7-7-------|
Eb :------0-9----9-0-|5---5-5---------|5---5-5-5---0---|----------0-5-7-|


Eb :-----------------|----------------|----------------|----------------|
Bb :-----------------|----------------|----------------|----------------|
Gb :-----------------|----------------|----------------|----------------|
Db :-----------------|----------------|----------------|----------------|
Ab :-----------------|----------------|----------------|----------------|
Eb :-----------------|----------------|----------------|----------------|

============================================================================


Eb :-----------------|----------------|----------------|----------------|
Bb :-----------------|----------------|----------------|----------------|
Gb :----9------------|------------9---|----------------|--9-9-9-9-9-9-9-|
Db :9---9--*----11--*|----7--*----9--*|----7-x-----7-x-|--9-9-9-9-7-7-7-|
Ab :7---7-------11---|7---7---7---7---|------x-------x-|--7-7-7-7-7-7-7-|
Eb :0-------9----9---|5---5---0---0---|5---5-------5---|----------------|


Gb :-----------------|----------------|----------------|----------------|
Db :-----------------|----------------|----------------|----------------|
Ab :7---7------------|--------7-7-7-7-|--------------7-|7-7-7-7-7-------|
Eb :------0-9----9-0-|5---5-5---------|5---5-5-5---0---|----------0-5-7-|


Eb :-----------------|----------------|----------------|----------------|
Bb :-----------------|----------------|----------------|----------------|
Gb :-----------------|----------------|----------------|----------------|
Db :-----------------|----------------|----------------|----------------|
Ab :-----------------|----------------|----------------|----------------|
Eb :-----------------|----------------|----------------|----------------|

============================================================================


Eb :-----------------|-------------------------|----------------|
Bb :-----------------|-------------------------|----------------|
Gb :----9--*---------|--------------------9---*|----------------|
Db :9---9--*----11--*|----7----*----------9----|----7--*----7--*|
Ab :7---7--*---------|--------(7)(7)-(7)--7---*|----7-------7---|
Eb :0---*--------9--*|----5---(0)(0)-(0)-(0)---|5---5--*----5--*|


Gb :-----------------|-------------------------|----------------|
Db :-----------------|-------------------------|----------------|
Ab :7---7------------|------------7---7---7--7-|--------------7-|
Eb :------0-9----9-0-|5---5-5------------------|5---5-5-5---0---|


Eb :-----------------|-------------------------|----------------|
Bb :-----------------|-------------------------|----------------|
Gb :-----------------|-------------------------|----------------|
Db :-----------------|-------------------------|----------------|
Ab :-----------------|-------------------------|----------------|
Eb :-----------------|-------------------------|----------------|

============================================================================


Eb :----------------|
Bb :----------------|
Gb :--9-*-9-*-------|
Db :--9---9---7-*-7-|
Ab :--7-*-7-*-7---7-|
Eb :----------5-*-5-|


Gb :----------------|
Db :----------------|
Ab :7-7-7-7-7-------|
Eb :----------0-5-7-|


Eb :----------------|
Bb :----------------|
Gb :----------------|
Db :----------------|
Ab :----------------|
Eb :----------------|

============================================================================


Eb :-------------------|----------------|------------------|
Bb :-------------------|----------------|------------------|
Gb :---------------7-x-|----------------|--------4-4b-5r-4-|
Db :----5--x-------7-x-|----------------|5-----*-----------|
Ab :----5--x--5----5-x-|5---5---5-------|3-----------------|
Eb :3---3--x-----------|3---3---3-------|------------------|


Gb :-------------------|----------------|------------------|
Db :-------------------|----------------|------------------|
Ab :-------------------|----------------|------------------|
Eb :3---3-10-10---10-2-|3---3-3-3-3-3-3-|8---8-8-8-8--8--8-|


Eb :-------------------|----------------|------------------|
Bb :-------------------|----------------|------------------|
Gb :-------------------|----------------|------------------|
Db :-------------------|----------------|------------------|
Ab :-------------------|----------------|------------------|
Eb :-------------------|----------------|------------------|

============================================================================


Eb :----------------|-------------------|----------------|----------------|
Bb :----------------|-------------------|----------------|----------------|
Gb :--------4-5-4-2-|---------------7-x-|----------------|----------------|
Db :----------------|----5--x-------7-x-|----------------|5-----*-5-------|
Ab :----------------|----5--x--5----5-x-|5---5---5-------|3---------------|
Eb :----------------|3---3--x-----------|3---3---3-------|----------------|


Gb :----------------|-------------------|----------------|----------------|
Db :----------------|-------------------|----------------|----------------|
Ab :----------------|-------------------|----------------|----------------|
Eb :8-8-8-8-8-8-8-8-|3---3-10-10---10-2-|3---3-3-3-3-3-3-|8---8-8-8-8-8-8-|


Eb :----------------|-------------------|----------------|----------------|
Bb :----------------|-------------------|----------------|----------------|
Gb :----------------|-------------------|----------------|----------------|
Db :----------------|-------------------|----------------|----------------|
Ab :----------------|-------------------|----------------|----------------|
Eb :----------------|-------------------|----------------|----------------|

============================================================================


Eb :----------------|----------------|----------------|----------------|
Bb :----------------|----------------|----------------|----------------|
Gb :----------------|------------7-x-|----------------|----------------|
Db :------5-7---5---|----5-x-----7-x-|----------------|5---5---5-------|
Ab :--------------5-|----5-x-5---5-x-|5---5---5-------|3---3---3-------|
Eb :----------------|3---3-x---------|3---3---3-------|----------------|


Gb :----------------|----------------|----------------|----------------|
Db :----------------|----------------|----------------|----------------|
Ab :----------------|----------------|----------------|3---3-3-3-3-3-3-|
Eb :8-8-8-8-8-8-8-8-|3---3-3-2---2-2-|3---3-3-3-3-3-3-|----------------|


Eb :----------------|----------------|----------------|----------------|
Bb :----------------|----------------|----------------|----------------|
Gb :----------------|----------------|----------------|----------------|
Db :----------------|----------------|----------------|----------------|
Ab :----------------|----------------|----------------|----------------|
Eb :----------------|----------------|----------------|----------------|

============================================================================


Eb :----------------|----------------|----------------|----------------|
Bb :----------------|----------------|----------------|----------------|
Gb :----------------|------------7-x-|----------------|----------------|
Db :----------------|----5-x-----7-x-|----------------|5-------5---5---|
Ab :----------------|----5-x-5---5-x-|5---5---5-------|3-------3---3---|
Eb :----------------|3---3-x---------|3---3---3-------|----------------|


Gb :----------------|----------------|----------------|----------------|
Db :----------------|----------------|----------------|----------------|
Ab :3-3-3-3-3-3-3-3-|----------------|----------------|3---3-3-3-3-3-3-|
Eb :----------------|3---3-3-2---2-2-|3---3-3-3-3-3-3-|----------------|


Eb :----------------|----------------|----------------|----------------|
Bb :----------------|----------------|----------------|----------------|
Gb :----------------|----------------|----------------|----------------|
Db :----------------|----------------|----------------|----------------|
Ab :----------------|----------------|----------------|----------------|
Eb :----------------|----------------|----------------|----------------|

============================================================================


Eb :----------------|
Bb :----------------|
Gb :--5-5-5-5-4-2-0-|
Db :5---------------|
Ab :3---------------|
Eb :----------------|


Gb :----------------|
Db :----------------|
Ab :3-3-3-3-3-------|
Eb :----------0-2-3-|


Eb :----------------|
Bb :----------------|
Gb :----------------|
Db :----------------|
Ab :----------------|
Eb :----------------|

============================================================================


Eb :----------------|----------------|----------------|
Bb :----------------|----------------|----------------|
Gb :----6-*---------|----6-*---------|----6-------6---|
Db :----6-*-----6-*-|----6-*-----4-*-|----6-------6---|
Ab :4---4-*-----6-*-|4---4-*-----4-*-|4---4-------4---|
Eb :--------4---4-*-|--------2---2-*-|----------------|


Gb :----------------|----------------|----------------|
Db :----------------|----------------|----------------|
Ab :4---4-----------|4---4-----------|4---4-4-4-4-4-4-|
Eb :------4-4---4-4-|------2-2---2-2-|----------------|


Eb :----------------|----------------|----------------|
Bb :----------------|----------------|----------------|
Gb :----------------|----------------|----------------|
Db :----------------|----------------|----------------|
Ab :----------------|----------------|----------------|
Eb :----------------|----------------|----------------|

============================================================================


Eb :-----------------------|----------------|----------------|
Bb :-----------------------|----------------|----------------|
Gb :--6^-6^-6^-6r-6r-6r-6r-|----6-*---------|----6-*---------|
Db :--6^-6^-6^-6r-6r-6r-6r-|----6-*-----6-*-|----6-*-----4-*-|
Ab :--4^-4^-4^-4r-4r-4r-4r-|4---4-*-----6-*-|4---4-*-----4-*-|
Eb :-----------------------|--------4---4-*-|--------2---2-*-|


Gb :-----------------------|----------------|----------------|
Db :-----------------------|----------------|----------------|
Ab :--4--4--4--4--4--4--4--|4---4-----------|4---4-----------|
Eb :-----------------------|------4-4---4-4-|------2-2---2-2-|


Eb :-----------------------|----------------|----------------|
Bb :-----------------------|----------------|----------------|
Gb :-----------------------|----------------|----------------|
Db :-----------------------|----------------|----------------|
Ab :-----------------------|----------------|----------------|
Eb :-----------------------|----------------|----------------|

============================================================================


Eb :----------------|-----------------|
Bb :----------------|-----------------|
Gb :----6-------6---|--6-6-6-6^-4-6-4-|
Db :----6-------6---|--6-6-6-6^-4-6-4-|
Ab :4---4-------4---|--4-4-4-4^-2-4-2-|
Eb :----------------|-----------------|


Gb :----------------|-----------------|
Db :----------------|-----------------|
Ab :4---4-4-4-4-4-4-|--4-4-4-4--*-----|
Eb :----------------|-----------------|


Eb :----------------|-----------------|
Bb :----------------|-----------------|
Gb :----------------|-----------------|
Db :----------------|-----------------|
Ab :----------------|-----------------|
Eb :----------------|-----------------|

============================================================================


Eb :-----------------------------|--------------------------|
Bb :-----------------------------|--------------------------|
Gb :-----------------------------|--------------------------|
Db :9---------*------------------|--------------------------|
Ab :7---------*---11---------*---|7---------*---------------|
Eb :---------------9---------*---|5---------*---------------|


Gb :-----------------------------|--------------------------|
Db :-----------------------------|--------------------------|
Ab :4--7--------7--7-------------|------------------------7-|
Eb :------------------9--------9-|9--5---------5--5--5--7---|


Eb :---------12-*-----------12-*-|---------12-12-15-15-12---|
Bb :--10-h12---------10-h12------|--10-h12------------------|
Gb :-----------------------------|--------------------------|
Db :-----------------------------|--------------------------|
Ab :-----------------------------|--------------------------|
Eb :-----------------------------|--------------------------|

============================================================================


Eb :--------------------|----------------|-----------------------------|
Bb :--------------------|----------------|-----------------------------|
Gb :--------------------|----------------|-----------------------------|
Db :--------------------|--9-*-9-*-------|9---------*------------------|
Ab :7-----*-----7---*---|--7-*-7-*-------|7---------*---11---------*---|
Eb :5-----*-----5---*---|----------------|---------------9---------*---|


Gb :--------------------|----------------|-----------------------------|
Db :--------------------|----------------|-----------------------------|
Ab :7-------------------|----7-7-7-7-----|---7--------7--7-------------|
Eb :---5-----5--5-5---5-|5-5---------5-5-|5-----------------9--------9-|


Eb :--------------------|----------------|---------12-*-----------12-*-|
Bb :--10-10-10-10-------|----------------|--10-h12---------10-h12------|
Gb :--------------9-9-7-|9---------------|-----------------------------|
Db :--------------------|--9-9-----------|-----------------------------|
Ab :--------------------|----------------|-----------------------------|
Eb :--------------------|----------------|-----------------------------|

============================================================================


Eb :--------------------------|----------------|----------------|
Bb :--------------------------|----------------|----------------|
Gb :--------------------------|----------------|----------------|
Db :--------------------------|----------------|--9-*-9-*-------|
Ab :7---------*---------------|7---*---7---*---|--7-*-7-*-7-7-7-|
Eb :5---------*---------------|5---*---5---*---|----------5-5-5-|


Gb :--------------------------|----------------|----------------|
Db :--------------------------|----------------|----------------|
Ab :------------------------7-|7---------------|----7-7-7-7-----|
Eb :9--5---------5--5--5--7---|--5---5-5-5---5-|5-5---------5-5-|


Eb :---------12-12-15-15-12---|----------------|----------------|
Bb :--10-h12------------------|----------------|----------------|
Gb :--------------------------|----------------|----------------|
Db :--------------------------|----------------|----------------|
Ab :--------------------------|----------------|----------------|
Eb :--------------------------|----------------|----------------|

============================================================================


Eb :-----------------|----------------|----------------|----------------|
Bb :-----------------|----------------|----------------|----------------|
Gb :-----------------|----------------|----------------|----------------|
Db :9---*------------|----------------|----------------|--9-*-9-*-------|
Ab :7---*---11---*---|7---*-----------|7---*---7---*---|--7-*-7-*-------|
Eb :---------9---*---|5---*-----------|5---*---5---*---|----------------|


Gb :-----------------|----------------|----------------|----------------|
Db :-----------------|----------------|----------------|----------------|
Ab :--7---7--7-------|--------------7-|7---------------|----7-7-7-7-----|
Eb :5----------9---9-|9-5---5-5-5-7---|--5---5-5-5---5-|5-5---------5-5-|


Eb :-----------------|----------------|----------------|----------------|
Bb :-----------------|----------------|----------------|----------------|
Gb :-----------------|----------------|----------------|----------------|
Db :-----------------|----------------|----------------|----------------|
Ab :-----------------|----------------|----------------|----------------|
Eb :-----------------|----------------|----------------|----------------|

============================================================================


Eb :-------------------|----------------|----------------|----------------|
Bb :-------------------|----------------|----------------|----------------|
Gb :-------------------|----------------|----------------|----------------|
Db :-9----*------------|----------------|----------------|--9-*-9-*-------|
Ab :-7----*---11---*---|7---*-----------|7---*---7---*---|--7-*-7-*-7-7-7-|
Eb :-----------9---*---|5---*-----------|5---*---5---*---|----------5-5-5-|


Gb :-------------------|----------------|----------------|----------------|
Db :-------------------|----------------|----------------|----------------|
Ab :----7---7--7-------|--------------7-|7---------------|----7-7-7-7-----|
Eb :-5-----------9---9-|9-5---5-5-5-7---|--5---5-5-5---5-|5-5---------5-5-|


Eb :-------------------|----------------|----------------|-------------------|
Bb :12..----------------|----------------|----------------|------------------|
Gb :-9..---*------------|----------------|----------------|------------------|
Db :-------------------|----------------|----------------|-------------------|
Ab :-------------------|----------------|----------------|-------------------|
Eb :-------------------|----------------|----------------|-------------------|

============================================================================


Eb :----------------|
Bb :----------------|
Gb :----------------|
Db :----------------|
Ab :5---*---4---*---|
Eb :3---*---2---*---|


Gb :----------------|
Db :----------------|
Ab :----------------|
Eb :5-3---3-3-2---2-|


Eb :----------------|
Bb :----------------|
Gb :----------------|
Db :----------------|
Ab :----------------|
Eb :----------------|

============================================================================


Eb :-------------------|----------------|------------------|
Bb :-------------------|----------------|------------------|
Gb :---------------7-x-|----------------|--------4-4b-5r-4-|
Db :----5--x-------7-x-|----------------|5-----*-----------|
Ab :----5--x--5----5-x-|5---5---5-------|3-----------------|
Eb :3---3--x-----------|3---3---3-------|------------------|


Gb :-------------------|----------------|------------------|
Db :-------------------|----------------|------------------|
Ab :-------------------|----------------|------------------|
Eb :3---3-10-10---10-2-|3---3-3-3-3-3-3-|8---8-8-8-8--8--8-|


Eb :-------------------|----------------|------------------|
Bb :-------------------|----------------|------------------|
Gb :-------------------|----------------|------------------|
Db :-------------------|----------------|------------------|
Ab :-------------------|----------------|------------------|
Eb :-------------------|----------------|------------------|

============================================================================


Eb :----------------|-------------------|----------------|----------------|
Bb :----------------|-------------------|----------------|----------------|
Gb :--------4-5-4-2-|---------------7-x-|----------------|----------------|
Db :----------------|----5--x-------7-x-|----------------|5-----*-5-------|
Ab :----------------|----5--x--5----5-x-|5---5---5-------|3---------------|
Eb :----------------|3---3--x-----------|3---3---3-------|----------------|


Gb :----------------|-------------------|----------------|----------------|
Db :----------------|-------------------|----------------|----------------|
Ab :----------------|-------------------|----------------|----------------|
Eb :8-8-8-8-8-8-8-8-|3---3-10-10---10-2-|3---3-3-3-3-3-3-|8---8-8-8-8-8-8-|


Eb :----------------|-------------------|----------------|----------------|
Bb :----------------|-------------------|----------------|----------------|
Gb :----------------|-------------------|----------------|----------------|
Db :----------------|-------------------|----------------|----------------|
Ab :----------------|-------------------|----------------|----------------|
Eb :----------------|-------------------|----------------|----------------|

============================================================================


Eb :----------------|----------------|----------------|----------------|
Bb :----------------|----------------|----------------|----------------|
Gb :----------------|------------7-x-|----------------|----------------|
Db :------5-7---5---|----5-x-----7-x-|----------------|5---5---5-------|
Ab :--------------5-|----5-x-5---5-x-|5---5---5-------|3---3---3-------|
Eb :----------------|3---3-x---------|3---3---3-------|----------------|


Gb :----------------|----------------|----------------|----------------|
Db :----------------|----------------|----------------|----------------|
Ab :----------------|----------------|----------------|3---3-3-3-3-3-3-|
Eb :8-8-8-8-8-8-8-8-|3---3-3-2---2-2-|3---3-3-3-3-3-3-|----------------|


Eb :----------------|----------------|----------------|----------------|
Bb :----------------|----------------|----------------|----------------|
Gb :----------------|----------------|----------------|----------------|
Db :----------------|----------------|----------------|----------------|
Ab :----------------|----------------|----------------|----------------|
Eb :----------------|----------------|----------------|----------------|

============================================================================


Eb :----------------|----------------|----------------|----------------|
Bb :----------------|----------------|----------------|----------------|
Gb :----------------|------------7-x-|----------------|----------------|
Db :----------------|----5-x-----7-x-|----------------|5-------5---5---|
Ab :----------------|----5-x-5---5-x-|5---5---5-------|3-------3---3---|
Eb :----------------|3---3-x---------|3---3---3-------|----------------|


Gb :----------------|----------------|----------------|----------------|
Db :----------------|----------------|----------------|----------------|
Ab :3-3-3-3-3-3-3-3-|----------------|----------------|3---3-3-3-3-3-3-|
Eb :----------------|3---3-3-2---2-2-|3---3-3-3-3-3-3-|----------------|


Eb :----------------|----------------|----------------|----------------|
Bb :----------------|----------------|----------------|----------------|
Gb :----------------|----------------|----------------|----------------|
Db :----------------|----------------|----------------|----------------|
Ab :----------------|----------------|----------------|----------------|
Eb :----------------|----------------|----------------|----------------|

============================================================================


Eb :----------------|
Bb :----------------|
Gb :----------------|
Db :5-5-5-----------|
Ab :3-3-3-----------|
Eb :----------------|


Gb :----------------|
Db :----------------|
Ab :3-3-3-3-3-------|
Eb :----------0-2-3-|


Eb :----------------|
Bb :----------------|
Gb :----------------|
Db :----------------|
Ab :----------------|
Eb :----------------|

*Sorry the solo is kind of incomplete for now





Comments


Popular Rudy And Blitz tabs & chords
Just About Done Bass Tabs
Type Of Thing Bass Tabs
Abc Tabs
Carmel My Dog Tabs
Just About Done Tabs
Shes So Brown Tabs
Teach Tabs
Turtle Frown Tabs
Type Of Thing Tabs
Used It All Up Tabs


Song lyrics



↑ Back to top | Tablatures and chords are parodies/interpretations of the original songs. You may use it for private study, scholarship, research or language learning purposes only
© 2014 AZChords.com Contact us | Privacy policy | DMCA | Add/correct tabs | Request tabs | Top 50 tabs