» » »

Rudy And Blitz, Teach Tabs (ver.1)

Artists:  A B C D E F G H I J K L M N O P Q R S T U V W X Y Z # 

Teach Tabs (ver.1)

Rudy And Blitz Tabs
 Rating:
4/5 (4 votes)
Teach lessons Tabs too difficult? Try these video lessons and learn fast
                -------------------------------------------------------------------------------
                             TEACH - Rudy & Blitz
-------------------------------------------------------------------------------

Tuning: Half-Step Down - Eb Ab Db Gb Bb eb

Verse (0:22)
eb|------------------------2-----------| (Let ring throughout, fade into feedback)
Bb|------------------------------------|
Gb|------------------------------------|
Db|--2----------------2----------------|
Ab|--2----------------2----------------|
Eb|--0----------------0----------------|


Chorus
eb|--------------------------------------|-----------------------------|
Bb|--------------------------------------|-----------------------------|
Gb|-----------4-----------------5--------|-----------4-----------------|
Db|--5--------4--------4--------5--------|--5--------4-----------------|
Ab|--5--------2--------4--------3--------|--5--------2--------3~-------|
Eb|--3-----------------2-----------------|--3--------------------------|


Keep repeating the Verse and the Chorus


Followed by this fill at 3:05
eb|-----------------------------|
Bb|-----------------------------|
Gb|-----------------------------|
Db|----------------2------/6~---| (the 6 and 7 are two separate guitars)
Ab|-----2----------2------/7~---|
Eb|--2-----2~-2~---0------------|


Breakdown - Keep playing variations of this until the final Chorus at 4:26
eb|--------------------------|
Bb|--------------------------|
Gb|--xx-4--------------------|
Db|--xx-4--xx--4----2--------|
Ab|--xx-2--xx--4----2--------|
Eb|--------xx--2----0--------|


And end on...
eb|-------------------|
Bb|-------------------|
Gb|-------------------|
Db|--2----------------|
Ab|--2----------------|
Eb|--0----------------|


************************************

| /   slide up
| \   slide down
| h   hammer-on
| p   pull-off
| ~   vibrato
| +   harmonic
| x   Mute note
| b   Bend
| pb  Pre-bend
| br  Bend release
| pbr Pre-bend release
| brb Bend release bend

************************************
            
Submit corrections

comments powered by Disqus
↑ Back to top | Rudy And Blitz Tabs for Teach. Lyrics for acoustic guitar and electric guitar. Tablatures and chords are parodies/interpretations of the original songs. You may use it for private study, scholarship, research or language learning purposes only