>
 >
Lucky Me

Lucky Me Guitar Tabs

Rudy And Blitz - Lucky Me chords, tabs, tablatures, lyrics

Guitar lessons | Add/correct | Request | Top 50 tabs Artists:  A B C D E F G H I J K L M N O P Q R S T U V W X Y Z 0-9

Lucky Me Guitar Tabs – Rudy And Blitz

CD, Sheet music, Poster

Do you like Lucky Me? Share with your friends now
Tabs
Intro/Verse
                                                               (girl just born)
Eb :----------------|----------------|----------------|----------------|----------------|
Bb :----------------|----------------|----------------|----------------|----------------|
Gb :----------------|----------------|----------------|----------------|----------------|
Db :----------------|----------------|----------------|----------------|9---9-9---------|
Ab :7-7-7-7-7-7-7-7-|7-7-7-7-7-7-7-7-|2---------------|--------7---7-7-|7---7-7-9---9-9-|
Eb :5-5-5-5-5-5-5-5-|5-5-5-5-5-5-5-5-|0---------------|--------5---5-5-|--------7---7-7-|

Gb :----------------|----------------|----------------|----------------|----------------|
Db :----------------|----------------|----------------|----------------|----------------|
Ab :----------------|----------------|----------------|----------------|7---7-7---------|
Eb :5-5-5-5-5-5-5-5-|5-5-5-5-5-5-5-5-|0---------------|--------5---5-5-|--------7---7-7-|

Eb :----------------|----------------|----------------|----------------|----------------|
Bb :----------------|----------------|----------------|----------------|----------------|
Gb :----------------|----------------|----------------|----------------|----------------|
Db :----------------|----------------|----------------|----------------|9---9-9---------|
Ab :7-7-7-7-7-7-7-7-|7-7-7-7-7-7-7-7-|2---------------|--------7---7-7-|7---7-7-9---9-9-|
Eb :5-5-5-5-5-5-5-5-|5-5-5-5-5-5-5-5-|0---------------|--------5---5-5-|--------7---7-7-|

==========================================================================================
    (but nine months..)                                 (hey!)

Eb :--------------0-|------0-------0-|------0---------|----------------|----------------|
Bb :--------------0-|------0-------0-|------0---------|----------------|----------------|
Gb :----------------|----------------|----------------|----------------|----------------|
Db :----------------|----------------|----------------|----------------|----------------|
Ab :9-9-9-9-7---7---|5---5---2---2---|9---9---7---7-7-|7-7-7-7-7-7-7-7-|7-7-7-7-7-------|
Eb :7-7-7-7-5---5---|3---3---0---0---|7---7---5---5-5-|5-5-5-5-5-5-5-5-|5-5-5-5-5-*-----|

Gb :----------------|----------------|----------------|----------------|----------------|
Db :----------------|----------------|----------------|----------------|----------------|
Ab :----------------|----------------|----------------|----------------|----------------|
Eb :7-7-7-7-5---5-5-|3---3-3-0---0-0-|7---7-7-5---5-5-|5-5-5-5-5-5-5-5-|5-5-5-5-5-*-----|

Eb :--------------0-|------0-------0-|------0---------|----------------|----------------|
Bb :--------------0-|------0-------0-|------0---------|----------------|----------------|
Gb :----------------|----------------|----------------|----------------|----------------|
Db :----------------|----------------|----------------|----------------|----------------|
Ab :9-9-9-9-7---7---|5---5---2---2---|9---9---7---7-7-|7-7-7-7-7-7-7-7-|7-7-7-7-7-------|
Eb :7-7-7-7-5---5---|3---3---0---0---|7---7---5---5-5-|5-5-5-5-5-5-5-5-|5-5-5-5-5-*-----|

==========================================================================================


Eb :----------------|----------------|----------------|------0-------0-|------0-------0-|
Bb :----------------|----------------|----------------|------0-------0-|------0-------0-|
Gb :----------------|----------------|----------------|----------------|----------------|
Db :----------------|--------9---9-9-|----------------|----------------|----------------|
Ab :----------------|7---7-7-7---7-7-|9---9-9-9-9-9-9-|7---7---5---5---|2---2---9---9---|
Eb :----------------|5---5-5---------|7---7-7-7-7-7-7-|5---5---3---3---|0---0---7---7---|

Gb :----------------|----------------|----------------|----------------|----------------|
Db :----------------|----------------|----------------|----------------|----------------|
Ab :----------------|--------7---7-7-|----------------|----------------|----------------|
Eb :----------------|5---5-5---------|7---7-7-7-7-7-7-|5---5-5-3---3-3-|0---0-0-7---7-7-|

Eb :----------------|----------------|----------------|------0-------0-|------0-------0-|
Bb :----------------|----------------|----------------|------0-------0-|------0-------0-|
Gb :----------------|----------------|----------------|----------------|----------------|
Db :----------------|--------9---9-9-|----------------|----------------|----------------|
Ab :----------------|7---7-7-7---7-7-|9---9-9-9-9-9-9-|7---7---5---5---|2---2---9---9---|
Eb :----------------|5---5-5---------|7---7-7-7-7-7-7-|5---5---3---3---|0---0---7---7---|

==========================================================================================


Eb :----------------|----------------|
Bb :----------------|----------------|
Gb :----------------|----------------|
Db :----------------|----------------|
Ab :7---7-7-7-7-7-7-|7-7-7-7-7-7-7-7-|
Eb :5---5-5-5-5-5-5-|5-5-5-5-5-5-5-5-|

Gb :----------------|----------------|
Db :----------------|----------------|
Ab :----------------|----------------|
Eb :5---5-5-5-5-5-5-|5-5-5-5-5-5-5-5-|

Eb :----------------|----------------|
Bb :----------------|----------------|
Gb :----------------|----------------|
Db :----------------|----------------|
Ab :7---7-7-7-7-7-7-|7-7-7-7-7-7-7-7-|
Eb :5---5-5-5-5-5-5-|5-5-5-5-5-5-5-5-|

==========================================================================================

     (Now it's so serious...)
Eb :----------------|----------------|----------------|----------------|
Bb :----------------|----------------|----------------|----------------|
Gb :----------------|----------------|----------------|----------------|
Db :9-9-9-7-7-7-7-7-|7-7-7-7-7-7-7-7-|9-9-9-7-7-7-7-7-|7-7-7-----------|
Ab :9-9-9-7-7-7-7-7-|7-7-7-7-7-7-7-7-|9-9-9-7-7-7-7-7-|7-7-7-----------|
Eb :7-7-7-5-5-5-5-5-|5-5-5-5-5-5-5-5-|7-7-7-5-5-5-5-5-|5-5-5---*-------|

Gb :----------------|----------------|----------------|----------------|
Db :----------------|----------------|----------------|----------------|
Ab :----------------|----------------|----------------|----------------|
Eb :7-7-7-5-5-5-5-5-|5-5-5-5-5-5-5-5-|7-7-7-5-5-5-5-5-|5-5-5---*-------|

Eb :----------------|----------------|----------------|----------------|
Bb :----------------|----------------|----------------|----------------|
Gb :----------------|----------------|----------------|----------------|
Db :9-9-9-7-7-7-7-7-|7-7-7-7-7-7-7-7-|9-9-9-7-7-7-7-7-|7-7-7-----------|
Ab :9-9-9-7-7-7-7-7-|7-7-7-7-7-7-7-7-|9-9-9-7-7-7-7-7-|7-7-7-----------|
Eb :7-7-7-5-5-5-5-5-|5-5-5-5-5-5-5-5-|7-7-7-5-5-5-5-5-|5-5-5---*-------|

==========================================================================================

    "Ain't no luxury...               There ain't no lucky me.."
Eb :----------------|----------------|----------------|----------------|----------------|
Bb :----------------|----------------|----------------|----------------|----------------|
Gb :----------------|----------------|----------------|----------------|----------------|
Db :----------------|----------------|----------------|----------------|----------------|
Ab :3---2---7---7-7-|7-7-7-3---3-3-3-|3---2---7---7-7-|7-7-7-3---3-3-3-|3---2---7---7-7-|
Eb :1---0---5---5-5-|5-5-5-1---1-1-1-|1---0---5---5-5-|5-5-5-1---1-1-1-|1---0---5---5-5-|

Gb :----------------|----------------|----------------|----------------|----------------|
Db :----------------|----------------|----------------|----------------|----------------|
Ab :----------------|----------------|----------------|----------------|----------------|
Eb :1---0---5---5-5-|5-5-5-1---1-1-1-|1---0---5---5-5-|5-5-5-1---1-1-1-|1---0---5---5-5-|

Eb :----------------|----------------|----------------|----------------|----------------|
Bb :----------------|----------------|----------------|----------------|----------------|
Gb :----------------|----------------|----------------|----------------|----------------|
Db :----------------|----------------|----------------|----------------|----------------|
Ab :3---2---7---7-7-|7-7-7-3---3-3-3-|3---2---7---7-7-|7-7-7-3---3-3-3-|3---2---7---7-7-|
Eb :1---0---5---5-5-|5-5-5-1---1-1-1-|1---0---5---5-5-|5-5-5-1---1-1-1-|1---0---5---5-5-|

==========================================================================================


Eb :----------------|----------------|----------------|----------------|----------------|
Bb :----------------|----------------|----------------|----------------|----------------|
Gb :----------------|----------------|----------------|----------------|----------------|
Db :----------------|----------------|----------------|----------------|----------------|
Ab :7-7-7-3---3-3-5-|--5-5-7---7-7-7-|7-7-7-7-7-7-7-7-|7-7-7-7-2-------|----------------|
Eb :5-5-5-1---1-1-3-|--3-3-5---5-5-5-|5-5-5-5-5-5-5-5-|5-5-5-5-0-------|----------------|

Gb :----------------|----------------|----------------|----------------|----------------|
Db :----------------|----------------|----------------|----------------|----------------|
Ab :----------------|----------------|----------------|----------------|----------------|
Eb :5-5-5-1---1-1-3-|--3-3-5---5-5-5-|5-5-5-5-5-5-5-5-|5-5-5-5-0-------|----------------|

Eb :----------------|----------------|----------------|----------------|----------------|
Bb :----------------|----------------|----------------|----------------|----------------|
Gb :----------------|----------------|----------------|----------------|----------------|
Db :----------------|----------------|----------------|----------------|----------------|
Ab :7-7-7-3---3-3-5-|--5-5-7---7-7-7-|7-7-7-7-7-7-7-7-|7-7-7-7-2-------|----------------|
Eb :5-5-5-1---1-1-3-|--3-3-5---5-5-5-|5-5-5-5-5-5-5-5-|5-5-5-5-0-------|----------------|

==========================================================================================

      solo
Eb :---------------------|---------------------|--------------------|
Bb :-9----9----9--7----5-|---5----------4------|----7----5--4-------|
Gb :---------------------|---------------------|--------------------|
Db :---------------------|---------------------|--------------------|
Ab :---------------------|---------------------|--------------------|
Eb :---------------------|---------------------|--------------------|

Gb :---------------------|---------------------|--------------------|
Db :---------------------|---------------------|--------------------|
Ab :---------------------|--------------7----7-|-7------------------|
Eb :---------------------|---5----5--5---------|----7----7--7-7-7-7-|

Eb :---------------------|---------------------|--------------------|
Bb :---------------------|---------------------|--------------------|
Gb :---------------------|---------------------|--------------------|
Db :18---18---18-16---14-|--14---14-14-13---13-|13-16---14-13-------|
Ab :---------------------|---------------------|--------------------|
Eb :---------------------|---------------------|--------------------|

==========================================================================================


Eb :---9----9--9--7----7-|-7--5----5--5--4----4-|-4--5----4--0------0-|
Bb :---------------------|----------------------|---------------------|
Gb :---------------------|----------------------|---------------------|
Db :---------------------|----------------------|---------------------|
Ab :---------------------|----------------------|---------------------|
Eb :---------------------|----------------------|---------------------|

Gb :---------------------|----------------------|---------------------|
Db :---------------------|----------------------|---------------------|
Ab :---------------------|----------------------|---------------------|
Eb :7--5----5--5--3----3-|-3--0----0--0--7----7-|-7--5----5--5-5-5--5-|

Eb :---------------------|----------------------|---------------------|
Bb :---------------------|----------------------|---------------------|
Gb :--18---18-18-16---16-|16-14---14-14-13---13-|13-14---13-----------|
Db :---------------------|----------------------|-----------14-----14-|
Ab :---------------------|----------------------|---------------------|
Eb :---------------------|----------------------|---------------------|

==========================================================================================


Eb :-0--0--0--0--0--0--0--0-|-0--0-*---9---9---|9-7---5---5-----|--9-------7-----|
Bb :------------------------|------------------|----------------|----------------|
Gb :------------------------|------------------|----------------|----------------|
Db :------------------------|------------------|----------------|----------------|
Ab :------------------------|------------------|----------------|----------------|
Eb :------------------------|------------------|----------------|----------------|

Gb :------------------------|------------------|----------------|----------------|
Db :------------------------|--------*---------|----------------|----------------|
Ab :------------------------|--------*---------|----------------|--7---7-7-------|
Eb :-5--5--5--5--5--5--5--5-|-5--5-5-*---------|----------5---5-|5---------7---7-|

Eb :------------------------|------*-----------|----------5-----|--4-------2-----|
Bb :------------------------|------------------|----------------|----------------|
Gb :------------------------|----------6---6---|6-4---2---2-----|----------------|
Db :14-14-14-14-14-14-14-14-|14-14-------------|----------------|----------------|
Ab :------------------------|------------------|----------------|----------------|
Eb :------------------------|------------------|----------------|----------------|

==========================================================================================


Eb :----------9---9-|9-7---7-7--5---5-|5--4---4-4-5---4-|0----------------------|
Bb :----------------|-----------------|-----------------|--------9-9-9-9-9-9-7-7|
Gb :----------------|-----------------|-----------------|-----------------------|
Db :----------------|-----------------|-----------------|-----------------------|
Ab :----------------|-----------------|-----------------|-----------------------|
Eb :----------------|-----------------|-----------------|-----------------------|

Gb :----------------|-----------------|-----------------|-----------------------|
Db :----------------|-----------------|-----------------|-----------------------|
Ab :----------------|-----------------|-----------------|-----------------------|
Eb :7-7-7-7-7-5---5-|5-3---3-3--0---0-|0--7---7-7-5---5-|5-5-5-5-5---5---5---5--|

Eb :----------9-----|--7-------12-----|--11-------5-----|0----------------------|
Bb :----------------|-----------------|-----------------|-----------------------|
Gb :----------------|-----------------|-----------------|-----------------------|
Db :----------------|-----------------|-----------------|-----------------------|
Ab :----------------|-----------------|-----------------|-----------------------|
Eb :----------------|-----------------|-----------------|-----------------------|

==========================================================================================


Eb :-------------------------------|
Bb :7-7-7-7-5-5-5-5-5-5-4-4-4-4-4-5|
Gb :-------------------------------|
Db :-------------------------------|
Ab :-------------------------------|
Eb :-------------------------------|

Gb :-------------------------------|
Db :-------------------------------|
Ab :-------------------------------|
Eb :5---5---5---5---5---5---5---5--|

Eb :-------------------------------|
Bb :-------------------------------|
Gb :-------------------------------|
Db :-------------------------------|
Ab :-------------------------------|
Eb :-------------------------------|





Comments


Popular Rudy And Blitz tabs & chords
Turtle Frown Bass Tabs
Type Of Thing Bass Tabs
Abc Tabs
Be A Loaf Tabs
Just About Done Tabs
Shes So Brown Tabs
Thanks Anyway Tabs
Type Of Thing Tabs
Type Of Thing 1 Tabs
Used It All Up Tabs


Song lyrics



↑ Back to top | Tablatures and chords are parodies/interpretations of the original songs. You may use it for private study, scholarship, research or language learning purposes only
© 2014 AZChords.com Contact us | Privacy policy | DMCA | Add/correct tabs | Request tabs | Top 50 tabs