>
 >
Carmel My Dog

Carmel My Dog Guitar Tabs

Rudy And Blitz - Carmel My Dog chords, tabs, tablatures, lyrics

Guitar lessons | Add/correct | Request | Top 50 tabs Artists:  A B C D E F G H I J K L M N O P Q R S T U V W X Y Z 0-9

Carmel My Dog Guitar Tabs – Rudy And Blitz

CD, Sheet music, Poster

Do you like Carmel My Dog? Share with your friends now
Tabs

Eb :----------------|
Bb :----------------|
Gb :----------------|
Db :----------------|  guitar one
Ab :----------------|
Eb :----------------|

Eb :----------------|
Bb :----------------|
Gb :----------------|   guitar 2
Db :----------------|
Ab :----------------|
Eb :----------------|

Gb :----------------|
Db :----------------|   bass
Ab :----------------|
Eb :----------------|

Eb :----------------|
Bb :----------------|
Gb :----------------|
Db :----------------|
Ab :----------------|   overdub/carmerl "bark bark bark"
Eb :----------------|

============================================================================

Eb :-----------------------------|-----------------------------|
Bb :-----------------------------|-----------------------------|
Gb :-----------------------------|-----------------------------|
Db :-----------------------------|-----------------------------|
Ab :--------4-4-4---------5-5-5-5|--------4-4-4---------5-5-5-5|
Eb :0-0-0-0-------3-3-3-3--------|0-0-0-0-------3-3-3-3--------| acoustic  intro

Eb :-----------------------------|-----------------------------|
Bb :-----------------------------|-----------------------------|
Gb :-----------------------------|-----------------------------|
Db :-----------------------------|-----------------------------|
Ab :-----------------------------|-----------------------------|
Eb :-----------------------------|-----------------------------|

Gb :-----------------------------|-----------------------------|
Db :-----------------------------|-----------------------------|
Ab :-----------------------------|-----------------------------|
Eb :-----------------------------|-----------------------------|

Eb :-----------------------------|-----------------------------|
Bb :-----------------------------|-----------------------------|
Gb :-----------------------------|-----------------------------|
Db :-----------------------------|-----------------------------|
Ab :-----------------------------|-----------------------------|
Eb :-----------------------------|-----------------------------|

============================================================================

Eb :-----------------------------|----------------------------|
Bb :-----------------------------|----------------------------|
Gb :-----------------------------|----------------------------|
Db :-----------------------------|----------------------7-7-7-|
Ab :--------4-4-4---------5-5-5-5|--------4-4-4---------5-5-5-|
Eb :0-0-0-0-------3-3-3-3--------|0-0-0-0-------3-3-3-3-------|

Eb :-----------------------------|----------------------------|
Bb :-----------------------------|----------------------------|
Gb :-----------------------------|----------------------------|
Db :-----------------------------|----------------------7-7-7-|
Ab :-----------------------------|----------------------5-5-5-|
Eb :-----------------------------|----------------------------|

Gb :-----------------------------|----------------------------|
Db :-----------------------------|----------------------------|
Ab :-----------------------------|----------------------5-5-5-|
Eb :-----------------------------|----------------------------|

Eb :-----------------------------|----------------------------|
Bb :-----------------------------|----------------------------|
Gb :-----------------------------|----------------------------|
Db :-----------------------------|----------------------------|
Ab :-----------------------------|----------------------------|
Eb :-----------------------------|----------------------------|

============================================================================

Eb :--------------------------|--------------------------|
Bb :--------------------------|--------------------------|
Gb :--------------------------|--------------------------|
Db :--------------------------|--------------------------|
Ab :------4-4-4---------5-5-5-|--------------------------|
Eb :0-0-0-------3-3-3-3-------|0-0-0-0-0-0-0-0-0-0-0-0-0-|

Eb :--------------------------|--------------------------|
Bb :--------------------------|--------------------------|
Gb :--------------------------|--------------------------|
Db :--------------------------|9-9-9-9-9-9-9-9-9-9-9-9-9-|
Ab :------4-4-4---------5-5-5-|7-7-7-7-7-7-7-7-7-7-7-7-7-|
Eb :0-0-0-------3-3-3-3-------|0-0-0-0-0-0-0-0-0-0-0-0-0-|

Gb :--------------------------|--------------------------|
Db :--------------------------|--------------------------|
Ab :------4-4-4---------5-5-5-|--------------------------|
Eb :0-0-0-------3-3-3-3-------|0-0-0-0-0-0-0-0-0-0-0-0-0-|

Eb :--------------------------|--------------------------|
Bb :--------------------------|--------------------------|
Gb :--------------------------|--------------------------|
Db :--------------------------|--------------------------|
Ab :--------------------------|--------------------------|
Eb :--------------------------|--------------------------|

============================================================================

Eb :--------------------------|--------------------------|
Bb :--------------------------|--------------------------|
Gb :--------------------------|--------------------------|
Db :--------------------------|--------------------7-7-7-|
Ab :------4-4-4---------5-5-5-|--------------------5-5-5-|
Eb :0-0-0-------3-3-3-3-------|0-0-0-0-0-0-0-0-0-0-------|

Eb :--------------------------|--------------------------|
Bb :--------------------------|--------------------------|
Gb :--------------------------|--------------------------|
Db :--------------------------|9-9-9-9-9-9-9-9-9-9-7-7-7-|
Ab :------4-4-4---------5-5-5-|7-7-7-7-7-7-7-7-7-7-5-5-5-|
Eb :0-0-0-------3-3-3-3-------|0-0-0-0-0-0-0-0-0-0-------|

Gb :--------------------------|--------------------------|
Db :--------------------------|--------------------------|
Ab :------4-4-4---------5-5-5-|--------------------5-5-5-|
Eb :0-0-0-------3-3-3-3-------|0-0-0-0-0-0-0-0-0-0-------|

Eb :--------------------------|--------------------------|
Bb :--------------------------|--------------------------|
Gb :--------------------------|--------------------------|
Db :--------------------------|--------------------------|
Ab :--------------------------|--------------------------|
Eb :--------------------------|--------------------------|

============================================================================
        feed her well and take her to the vet
Eb :-----------------|----------------------|-----------------|
Bb :-----------------|----------------------|-----------------|
Gb :-----------------|----------------------|-----------------|
Db :-----------------|--9-9-9-9-9-9-9-9-9-9-|-----------------|  verse
Ab :5-*-9-*-7-*-10-*9|----------------------|5-*-9-*-7-*-10-*9|
Eb :3-*-7-*-5-*--8-*7|--7-7-7-7-7-7-7-7-7-7-|3-*-7-*-5-*--8-*7|

Eb :-----------------|----------------------|-----------------|
Bb :-----------------|----------------------|-----------------|
Gb :-----------------|----------------------|-----------------|
Db :-----------------|--9-9-9-9-9-9-9-9-9-9-|-----------------|
Ab :5-x-9-x-7-x-10-x9|----------------------|5-x-9-x-7-x-10-x9|
Eb :3-x-7-x-5-x--8-x7|--7-7-7-7-7-7-7-7-7-7-|3-x-7-x-5-x--8-x7|

Gb :-----------------|----------------------|-----------------|
Db :-----------------|----------------------|-----------------|
Ab :-----------------|----------------------|-----------------|
Eb :3-*-7-*-5-*--8-*7|--7-7-7-7-7-7-7-7-7-7-|3-*-7-*-5-*--8-*7|

Eb :-----------------|----------------------|-----------------|
Bb :-----------------|----------------------|-----------------|
Gb :-----------------|----------------------|-----------------|
Db :-----------------|----------------------|-----------------|
Ab :-----------------|----------------------|-----------------|
Eb :-----------------|----------------------|-----------------|

============================================================================

Eb :----------------------|-----------------|----------------------|
Bb :----------------------|-----------------|----------------------|
Gb :----------------------|-----------------|----------------------|
Db :--9-9-9-9-9-9-9-9-9-9-|-----------------|--9-9-9-9-9-9-9-9-9-9-|
Ab :----------------------|5-*-9-*-7-*-10-*9|----------------------|
Eb :--7-7-7-7-7-7-7-7-7-7-|3-*-7-*-5-*--8-*7|--7-7-7-7-7-7-7-7-7-7-|

Eb :----------------------|-----------------|----------------------|
Bb :----------------------|-----------------|----------------------|
Gb :----------------------|-----------------|----------------------|
Db :--9-9-9-9-9-9-9-9-9-9-|-----------------|--9-9-9-9-9-9-9-9-9-9-|
Ab :----------------------|5-x-9-x-7-x-10-x9|----------------------|
Eb :--7-7-7-7-7-7-7-7-7-7-|3-x-7-x-5-x--8-x7|--7-7-7-7-7-7-7-7-7-7-|

Gb :----------------------|-----------------|----------------------|
Db :----------------------|-----------------|----------------------|
Ab :----------------------|-----------------|----------------------|
Eb :--7-7-7-7-7-7-7-7-7-7-|3-*-7-*-5-*--8-*7|--7-7-7-7-7-7-7-7-7-7-|

Eb :----------------------|-----------------|----------------------|
Bb :----------------------|-----------------|----------------------|
Gb :----------------------|-----------------|----------------------|
Db :----------------------|-----------------|----------------------|
Ab :----------------------|-----------------|----------------------|
Eb :----------------------|-----------------|----------------------|

============================================================================

Eb :-----------------|----------------------|
Bb :-----------------|----------------------|
Gb :-----------------|----------------------|
Db :-----------------|--9-9-9-9-9-9-9-9-9-9-|
Ab :5-*-9-*-7-*-10-*9|----------------------|
Eb :3-*-7-*-5-*--8-*7|--7-7-7-7-7-7-7-7-7-7-|

Eb :-----------------|----------------------|
Bb :-----------------|----------------------|
Gb :-----------------|----------------------|
Db :-----------------|--9-9-9-9-9-9-9-9-9-9-|
Ab :5-x-9-x-7-x-10-x9|----------------------|
Eb :3-x-7-x-5-x--8-x7|--7-7-7-7-7-7-7-7-7-7-|

Gb :-----------------|----------------------|
Db :-----------------|----------------------|
Ab :-----------------|----------------------|
Eb :3-*-7-*-5-*--8-*7|--7-7-7-7-7-7-7-7-7-7-|

Eb :-----------------|----------------------|
Bb :-----------------|----------------------|
Gb :-----------------|----------------------|
Db :-----------------|----------------------|
Ab :-----------------|----------------------|
Eb :-----------------|----------------------|

============================================================================
       carmel's my dog i love carmel my dog
Eb :--------------------------|----------------------------|
Bb :--------------------------|----------------------------|
Gb :--------------------------|----------------------------|  chorus
Db :--------------------------|----------------------------|
Ab :------4-4-4---------5-5-5-|----------------------------|
Eb :0-0-0-------3-3-3-3-------|0---0-0-0-0-0-0-0-0-0-0-0-0-|

Eb :--------------------------|----------------------------|
Bb :--------------------------|----------------------------|
Gb :--------------------------|9-9-9-9-9-9---9-9-9-9-9-9-9-|
Db :--------------------------|--------------------------9-|
Ab :------4-4-4---------5-5-5-|7-7-7-7-7-7---7-7-7-7-7-7-7-|
Eb :0-0-0-------3-3-3-3-------|0---0-0-0-0-0-0-0-0-0-0-0-0-|

Gb :--------------------------|----------------------------|
Db :--------------------------|----------------------------|
Ab :------4-4-4---------5-5-5-|----------------------------|
Eb :0-0-0-------3-3-3-3-------|0---0-0-0-0-0-0-0-0-0-0-0-0-|

Eb :--------------------------|----------------------------|
Bb :--------------------------|----------------------------|
Gb :--------------------------|----------------------------|
Db :--------------------------|----------------------------|
Ab :--------------------------|----------------------------|
Eb :--------------------------|----------------------------|

============================================================================

Eb :--------------------------|--------------------------|
Bb :--------------------------|--------------------------|
Gb :--------------------------|--------------------------|
Db :--------------------------|--------------------------|
Ab :------4-4-4---------5-5-5-|--------------------------|
Eb :0-0-0-------3-3-3-3-------|0-0-0-0-0-0-0-0-0-0-0-0-0-|

Eb :--------------------------|--------------------------|
Bb :--------------------------|--------------------------|
Gb :--------------------------|9-9-9-9-9-9-9-9-9-9-9-9-9-|
Db :--------------------------|--------------------------|
Ab :------4-4-4---------5-5-5-|7-7-7-7-7-7-7-7-7-7-7-7-7-|
Eb :0-0-0-------3-3-3-3-------|0-0-0-0-0-0-0-0-0-0-0-0-0-|

Gb :--------------------------|--------------------------|
Db :--------------------------|--------------------------|
Ab :------4-4-4---------5-5-5-|--------------------------|
Eb :0-0-0-------3-3-3-3-------|0-0-0-0-0-0-0-0-0-0-0-0-0-|

Eb :--------------------------|--------------------------|
Bb :--------------------------|--------------------------|
Gb :--------------------------|--------------------------|
Db :--------------------------|--------------------------|
Ab :--------------------------|--------------------------|
Eb :--------------------------|--------------------------|

============================================================================

Eb :--------------------------|----------------------------|
Bb :--------------------------|----------------------------|
Gb :--------------------------|----------------------------|
Db :--------------------------|----------------------------|
Ab :------4-4-4---------5-5-5-|----------------------------|
Eb :0-0-0-------3-3-3-3-------|0---0-0-0-0-0-0-0-0-0-0-0-0-|

Eb :--------------------------|----------------------------|
Bb :--------------------------|----------------------------|
Gb :--------------------------|9-9-9-9-9-9---9-9-9-9-9-9-9-|
Db :--------------------------|--------------------------9-|
Ab :------4-4-4---------5-5-5-|7-7-7-7-7-7---7-7-7-7-7-7-7-|
Eb :0-0-0-------3-3-3-3-------|0---0-0-0-0-0-0-0-0-0-0-0-0-|

Gb :--------------------------|----------------------------|
Db :--------------------------|----------------------------|
Ab :------4-4-4---------5-5-5-|----------------------------|
Eb :0-0-0-------3-3-3-3-------|0---0-0-0-0-0-0-0-0-0-0-0-0-|

Eb :--------------------------|----------------------------|
Bb :--------------------------|----------------------------|
Gb :--------------------------|----------------------------|
Db :--------------------------|----------------------------|
Ab :--------------------------|----------------------------|
Eb :--------------------------|----------------------------|

============================================================================

Eb :--------------------------|--------------------------|
Bb :--------------------------|--------------------------|
Gb :--------------------------|--------------------------|
Db :--------------------------|--------------------------|
Ab :------4-4-4---------5-5-5-|--------------------------|
Eb :0-0-0-------3-3-3-3-------|0-0-0-0-0-0-0-0-0-0-0-0-0-|

Eb :--------------------------|--------------------------|
Bb :--------------------------|--------------------------|
Gb :--------------------------|9-9-9-9-9-9-9-9-9-9-9-9-9-|
Db :--------------------------|--------------------------|
Ab :------4-4-4---------5-5-5-|7-7-7-7-7-7-7-7-7-7-7-7-7-|
Eb :0-0-0-------3-3-3-3-------|0-0-0-0-0-0-0-0-0-0-0-0-0-|

Gb :--------------------------|--------------------------|
Db :--------------------------|--------------------------|
Ab :------4-4-4---------5-5-5-|--------------------------|
Eb :0-0-0-------3-3-3-3-------|0-0-0-0-0-0-0-0-0-0-0-0-0-|

Eb :--------------------------|--------------------------|
Bb :--------------------------|--------------------------|
Gb :--------------------------|--------------------------|
Db :--------------------------|--------------------------|
Ab :--------------------------|--------------------------|
Eb :--------------------------|--------------------------|

============================================================================

Eb :-----------------|----------------------|-----------------|
Bb :-----------------|----------------------|-----------------|
Gb :-----------------|----------------------|-----------------|
Db :-----------------|--9-9-9-9-9-9-9-9-9-9-|-----------------|
Ab :5-*-9-*-7-*-10-*9|----------------------|5-*-9-*-7-*-10-*9|
Eb :3-*-7-*-5-*--8-*7|--7-7-7-7-7-7-7-7-7-7-|3-*-7-*-5-*--8-*7|

Eb :-----------------|----------------------|-----------------|
Bb :-----------------|----------------------|-----------------|
Gb :-----------------|----------------------|-----------------|
Db :-----------------|--9-9-9-9-9-9-9-9-9-9-|-----------------|
Ab :5-x-9-x-7-x-10-x9|----------------------|5-x-9-x-7-x-10-x9|
Eb :3-x-7-x-5-x--8-x7|--7-7-7-7-7-7-7-7-7-7-|3-x-7-x-5-x--8-x7|

Gb :-----------------|----------------------|-----------------|
Db :-----------------|----------------------|-----------------|
Ab :-----------------|----------------------|-----------------|
Eb :3-*-7-*-5-*--8-*7|--7-7-7-7-7-7-7-7-7-7-|3-*-7-*-5-*--8-*7|

Eb :-----------------|----------------------|-----------------|
Bb :-----------------|----------------------|-----------------|
Gb :-----------------|----------------------|-----------------|
Db :-----------------|----------------------|-----------------|
Ab :-----------------|----------------------|-----------------|
Eb :-----------------|----------------------|-----------------|

============================================================================

Eb :----------------------|-----------------|----------------------|
Bb :----------------------|-----------------|----------------------|
Gb :----------------------|-----------------|----------------------|
Db :--9-9-9-9-9-9-9-9-9-9-|-----------------|--9-9-9-9-9-9-9-9-9-9-|
Ab :----------------------|5-*-9-*-7-*-10-*9|----------------------|
Eb :--7-7-7-7-7-7-7-7-7-7-|3-*-7-*-5-*--8-*7|--7-7-7-7-7-7-7-7-7-7-|

Eb :----------------------|-----------------|----------------------|
Bb :----------------------|-----------------|----------------------|
Gb :----------------------|-----------------|----------------------|
Db :--9-9-9-9-9-9-9-9-9-9-|-----------------|--9-9-9-9-9-9-9-9-9-9-|
Ab :----------------------|5-x-9-x-7-x-10-x9|----------------------|
Eb :--7-7-7-7-7-7-7-7-7-7-|3-x-7-x-5-x--8-x7|--7-7-7-7-7-7-7-7-7-7-|

Gb :----------------------|-----------------|----------------------|
Db :----------------------|-----------------|----------------------|
Ab :----------------------|-----------------|----------------------|
Eb :--7-7-7-7-7-7-7-7-7-7-|3-*-7-*-5-*--8-*7|--7-7-7-7-7-7-7-7-7-7-|

Eb :----------------------|-----------------|----------------------|
Bb :----------------------|-----------------|----------------------|
Gb :----------------------|-----------------|----------------------|
Db :----------------------|-----------------|----------------------|
Ab :----------------------|-----------------|----------------------|
Eb :----------------------|-----------------|----------------------|

============================================================================

Eb :-----------------|----------------------|
Bb :-----------------|----------------------|
Gb :-----------------|----------------------|
Db :-----------------|--9-9-9-9-9-9-9-9-9-9-|
Ab :5-*-9-*-7-*-10-*9|----------------------|
Eb :3-*-7-*-5-*--8-*7|--7-7-7-7-7-7-7-7-7-7-|

Eb :-----------------|----------------------|
Bb :-----------------|----------------------|
Gb :-----------------|----------------------|
Db :-----------------|--9-9-9-9-9-9-9-9-9-9-|
Ab :5-x-9-x-7-x-10-x9|----------------------|
Eb :3-x-7-x-5-x--8-x7|--7-7-7-7-7-7-7-7-7-7-|

Gb :-----------------|----------------------|
Db :-----------------|----------------------|
Ab :-----------------|----------------------|
Eb :3-*-7-*-5-*--8-*7|--7-7-7-7-7-7-7-7-7-7-|

Eb :-----------------|----------------------|
Bb :-----------------|----------------------|
Gb :-----------------|----------------------|
Db :-----------------|----------------------|
Ab :-----------------|----------------------|
Eb :-----------------|----------------------|

============================================================================

Eb :--------------------------|----------------------------|
Bb :--------------------------|----------------------------|
Gb :--------------------------|----------------------------|
Db :--------------------------|----------------------------|
Ab :------4-4-4---------5-5-5-|----------------------------|
Eb :0-0-0-------3-3-3-3-------|0---0-0-0-0-0-0-0-0-0-0-0-0-|

Eb :--------------------------|----------------------------|
Bb :--------------------------|----------------------------|
Gb :--------------------------|9-9-9-9-9-9---9-9-9-9-9-9-9-|
Db :--------------------------|--------------------------9-|
Ab :------4-4-4---------5-5-5-|7-7-7-7-7-7---7-7-7-7-7-7-7-|
Eb :0-0-0-------3-3-3-3-------|0---0-0-0-0-0-0-0-0-0-0-0-0-|

Gb :--------------------------|----------------------------|
Db :--------------------------|----------------------------|
Ab :------4-4-4---------5-5-5-|----------------------------|
Eb :0-0-0-------3-3-3-3-------|0---0-0-0-0-0-0-0-0-0-0-0-0-|

Eb :--------------------------|----------------------------|
Bb :--------------------------|----------------------------|
Gb :--------------------------|----------------------------|
Db :--------------------------|----------------------------|
Ab :--------------------------|----------------------------|
Eb :--------------------------|----------------------------|

============================================================================

Eb :--------------------------|--------------------------|
Bb :--------------------------|--------------------------|
Gb :--------------------------|--------------------------|
Db :--------------------------|--------------------------|
Ab :------4-4-4---------5-5-5-|--------------------------|
Eb :0-0-0-------3-3-3-3-------|0-0-0-0-0-0-0-0-0-0-0-0-0-|

Eb :--------------------------|--------------------------|
Bb :--------------------------|--------------------------|
Gb :--------------------------|9-9-9-9-9-9-9-9-9-9-9-9-9-|
Db :--------------------------|--------------------------|
Ab :------4-4-4---------5-5-5-|7-7-7-7-7-7-7-7-7-7-7-7-7-|
Eb :0-0-0-------3-3-3-3-------|0-0-0-0-0-0-0-0-0-0-0-0-0-|

Gb :--------------------------|--------------------------|
Db :--------------------------|--------------------------|
Ab :------4-4-4---------5-5-5-|--------------------------|
Eb :0-0-0-------3-3-3-3-------|0-0-0-0-0-0-0-0-0-0-0-0-0-|

Eb :--------------------------|--------------------------|
Bb :--------------------------|--------------------------|
Gb :--------------------------|--------------------------|
Db :--------------------------|--------------------------|
Ab :--------------------------|--------------------------|
Eb :--------------------------|--------------------------|

============================================================================

Eb :--------------------------|----------------------------|
Bb :--------------------------|----------------------------|
Gb :--------------------------|----------------------------|
Db :--------------------------|----------------------------|
Ab :------4-4-4---------5-5-5-|----------------------------|
Eb :0-0-0-------3-3-3-3-------|0---0-0-0-0-0-0-0-0-0-0-0-0-|

Eb :--------------------------|----------------------------|
Bb :--------------------------|----------------------------|
Gb :--------------------------|9-9-9-9-9-9---9-9-9-9-9-9-9-|
Db :--------------------------|--------------------------9-|
Ab :------4-4-4---------5-5-5-|7-7-7-7-7-7---7-7-7-7-7-7-7-|
Eb :0-0-0-------3-3-3-3-------|0---0-0-0-0-0-0-0-0-0-0-0-0-|

Gb :--------------------------|----------------------------|
Db :--------------------------|----------------------------|
Ab :------4-4-4---------5-5-5-|----------------------------|
Eb :0-0-0-------3-3-3-3-------|0---0-0-0-0-0-0-0-0-0-0-0-0-|

Eb :--------------------------|----------------------------|
Bb :--------------------------|----------------------------|
Gb :--------------------------|----------------------------|
Db :--------------------------|----------------------------|
Ab :--------------------------|----------------------------|
Eb :--------------------------|----------------------------|

============================================================================

Eb :--------------------------|--------------------------|
Bb :--------------------------|--------------------------|
Gb :--------------------------|--------------------------|
Db :--------------------------|--------------------------|
Ab :------4-4-4---------5-5-5-|--------------------------|
Eb :0-0-0-------3-3-3-3-------|0-0-0-0-0-0-0-0-0-0-0-0-0-|

Eb :--------------------------|--------------------------|
Bb :--------------------------|--------------------------|
Gb :--------------------------|9-9-9-9-9-9-9-9-9-9-9-9-9-|
Db :--------------------------|--------------------------|
Ab :------4-4-4---------5-5-5-|7-7-7-7-7-7-7-7-7-7-7-7-7-|
Eb :0-0-0-------3-3-3-3-------|0-0-0-0-0-0-0-0-0-0-0-0-0-|

Gb :--------------------------|--------------------------|
Db :--------------------------|--------------------------|
Ab :------4-4-4---------5-5-5-|--------------------------|
Eb :0-0-0-------3-3-3-3-------|0-0-0-0-0-0-0-0-0-0-0-0-0-|

Eb :--------------------------|--------------------------|
Bb :--------------------------|--------------------------|
Gb :--------------------------|--------------------------|
Db :--------------------------|--------------------------|
Ab :--------------------------|--------------------------|
Eb :--------------------------|--------------------------|

============================================================================
        bridge
Eb :--------------------------|---------------------|---------------------|
Bb :--------------------------|---------------------|---------------------|
Gb :--------------------------|---------------------|---------------------|
Db :--------------------------|---------------------|---------------------|
Ab :3-3-3-3-3-2-2-*-2---2---2-|3-3-3-3-3-2-2-*2-2---|3-3-3-3-3-2-2-*2-2---|
Eb :1-1-1-1-1-0-0-*-0---0---0-|1-1-1-1-1-0-0-*0-0---|1-1-1-1-1-0-0-*0-0---|

Eb :--------------------------|---------------------|---------------------|
Bb :--------------------------|---------------------|---------------------|
Gb :--------------------------|---------------------|---------------------|
Db :--------------------------|---------------------|---------------------|
Ab :3-3-3-3-3-2-2-*-2---2---2-|3-3-3-3-3-2-2-*2-2---|3-3-3-3-3-2-2-*2-2---|
Eb :1-1-1-1-1-0-0-*-0---0---0-|1-1-1-1-1-0-0-*0-0---|1-1-1-1-1-0-0-*0-0---|

Gb :--------------------------|---------------------|---------------------|
Db :--------------------------|---------------------|---------------------|
Ab :--------------------------|---------------------|---------------------| SLAP BASS
Eb :1-1-1-1-1-0-0-0---0---0---|1-1-1-1-1-0-0-*0-0-0-|1-1-1-1-1-0-0-*0-0-0-|

Eb :--------------------------|---------------------|---------------------|
Bb :--------------------------|---------------------|---------------------|
Gb :*-------------------------|---------------------|---------------------|
Db :--------------------------|---------------------|---------------------|
Ab :--------------------------|---------------------|---------------------|
Eb :--------------------------|---------------------|---------------------|

============================================================================

Eb :---------------------|------------------------------|
Bb :---------------------|------------------------------|
Gb :---------------------|------------------------------|
Db :---------------------|------------------------------|
Ab :3-3-3-3-3-2-2-*2-2---|-3--3--3--3--3--2--2-*-2--2---|
Eb :1-1-1-1-1-0-0-*0-0---|-1--1--1--1--1--0--0-*-0--0---|

Eb :---------------------|------------------------------|
Bb :---------------------|------------------------------|
Gb :---------------------|------------------------------|
Db :---------------------|------------------------------|
Ab :3-3-3-3-3-2-2-*2-2---|-3--3--3--3--3--2--2-*-2--2---|
Eb :1-1-1-1-1-0-0-*0-0---|-1--1--1--1--1--0--0-*-0--0---|

Gb :---------------------|------------------------------|
Db :---------------------|------------------------------|
Ab :---------------------|------------------------------|
Eb :1-1-1-1-1-0-0-*0-0-0-|-1--1--1--1--1--0--0-*-0--0---|

Eb :---------------------|13-13-13-13-13-12-12-*12-12---|
Bb :---------------------|------------------------------|
Gb :---------------------|---------------------*--------|
Db :---------------------|------------------------------|
Ab :---------------------|------------------------------|
Eb :---------------------|------------------------------|

============================================================================

Eb :------------------------------|------------------------------|
Bb :------------------------------|------------------------------|
Gb :------------------------------|------------------------------|
Db :------------------------------|------------------------------|
Ab :-3--3--3--3--3--2--2-*-2--2---|-3--3--3--3--3--2--2-*-2--2---|
Eb :-1--1--1--1--1--0--0-*-0--0---|-1--1--1--1--1--0--0-*-0--0---|

Eb :------------------------------|------------------------------|
Bb :------------------------------|------------------------------|
Gb :------------------------------|------------------------------|
Db :------------------------------|------------------------------|
Ab :-3--3--3--3--3--2--2-*-2--2---|-3--3--3--3--3--2--2-*-2--2---|
Eb :-1--1--1--1--1--0--0-*-0--0---|-1--1--1--1--1--0--0-*-0--0---|

Gb :------------------------------|------------------------------|
Db :------------------------------|------------------------------|
Ab :------------------------------|------------------------------|
Eb :-1--1--1--1--1--0--0-*-0--0---|-1--1--1--1--1--0--0-*-0--0---|

Eb :13-13-13-13-13-12-12-*12-12---|13-13-13-13-13-12-12-*12-12---|
Bb :------------------------------|------------------------------|
Gb :---------------------*--------|---------------------*--------|
Db :------------------------------|------------------------------|
Ab :------------------------------|------------------------------|
Eb :------------------------------|------------------------------|

============================================================================

Eb :------------------------------|------------------------------|
Bb :------------------------------|------------------------------|
Gb :------------------------------|------------------------------|
Db :------------------------------|------------------------------|
Ab :-3--3--3--3--3--2--2-*-2--2---|-3--3--3--3--3--2-*-----------|
Eb :-1--1--1--1--1--0--0-*-0--0---|-1--1--1--1--1--0-*-----------|

Eb :------------------------------|------------------------------|
Bb :------------------------------|------------------------------|
Gb :------------------------------|------------------------------|
Db :------------------------------|------------------------------|
Ab :-3--3--3--3--3--2--2-*-2--2---|-3--3--3--3--3--2-*-----------|
Eb :-1--1--1--1--1--0--0-*-0--0---|-1--1--1--1--1--0-*-----------|

Gb :------------------------------|------------------------------|
Db :------------------------------|------------------------------|
Ab :------------------------------|------------------------------|
Eb :-1--1--1--1--1--0--0-*-0--0---|-1--1--1--1--1--0-*-----------|

Eb :13-13-13-13-13-12-12-*12-12---|13-13-13-13-13-12-*-12-*12*12*|
Bb :------------------------------|------------------------------|
Gb :------------------------------|------------------------------|
Db :------------------------------|------------------------------|
Ab :------------------------------|------------------------------|
Eb :------------------------------|------------------------------|

============================================================================

Eb :------------------------------|------------------------------|
Bb :------------------------------|------------------------------|
Gb :------------------------------|------------------------------|
Db :------------------------------|------------------------------|
Ab :-3--3--3--3--3--2--2-*-2--2---|-3--3--3--3--3--2--2-*-2--2---|
Eb :-1--1--1--1--1--0--0-*-0--0---|-1--1--1--1--1--0--0-*-0--0---|

Eb :------------------------------|------------------------------|
Bb :------------------------------|------------------------------|
Gb :------------------------------|------------------------------|
Db :------------------------------|------------------------------|
Ab :-3--3--3--3--3--2--2-*-2--2---|-3--3--3--3--3--2--2-*-2--2---|
Eb :-1--1--1--1--1--0--0-*-0--0---|-1--1--1--1--1--0--0-*-0--0---|

Gb :------------------------------|------------------------------|
Db :------------------------------|------------------------------|
Ab :------------------------------|------------------------------|
Eb :-1--1--1--1--1--0--0-*-0--0---|-1--1--1--1--1--0--0-*-0--0---|

Eb :13-13-13-13-13-12-12-*12-12---|13-13-13-13-13-12-12-*12-12---|
Bb :------------------------------|------------------------------|
Gb :------------------------------|------------------------------|
Db :------------------------------|------------------------------|
Ab :------------------------------|------------------------------|
Eb :------------------------------|------------------------------|

============================================================================

Eb :------------------------------|------------------------------|
Bb :------------------------------|------------------------------|
Gb :------------------------------|------------------------------|
Db :------------------------------|------------------------------|
Ab :-3--3--3--3--3--2--2-*-2--2---|-3--3--3--3--3--2-*-----------|
Eb :-1--1--1--1--1--0--0-*-0--0---|-1--1--1--1--1--0-*----5-6-7-8|

Eb :------------------------------|------------------------------|
Bb :------------------------------|------------------------------|
Gb :------------------------------|------------------------------|
Db :------------------------------|------------------------------|
Ab :-3--3--3--3--3--2--2-*-2--2---|-3--3--3--3--3--2-*-----------|
Eb :-1--1--1--1--1--0--0-*-0--0---|-1--1--1--1--1--0-*----5-6-7-8|

Gb :------------------------------|------------------------------|
Db :------------------------------|------------------------------|
Ab :------------------------------|------------------------------|
Eb :-1--1--1--1--1--0--0-*-0--0---|-1--1--1--1--1--0-*----5-6-7-8|

Eb :13-13-13-13-13-12-12-*12-12---|13-13-13-13-13-12*------------|
Bb :------------------------------|------------------------------|
Gb :------------------------------|------------------------------|
Db :------------------------------|------------------------------|
Ab :------------------------------|------------------------------|
Eb :------------------------------|------------------------------|

============================================================================

Eb :----------------------------|--------------------------|
Bb :----------------------------|--------------------------|
Gb :----------------------------|--------------------------|
Db :----------------------------|--------------------------|
Ab :----------------------------|------4-4-4---------5-5-5-|
Eb :9-10-11-12-13-14-15*--------|0-0-0-------3-3-3-3-------|

Eb :----------------------------|--------------------------|
Bb :----------------------------|--------------------------|
Gb :----------------------------|--------------------------|
Db :----------------------------|--------------------------|
Ab :----------------------------|------4-4-4---------5-5-5-|
Eb :9-10-11-12-13-14--*---------|0-0-0-------3-3-3-3-------|

Gb :----------------------------|--------------------------|
Db :----------------------------|--------------------------|
Ab :----------------------------|------4-4-4---------5-5-5-|
Eb :9-10-11-12-13-14--*---------|0-0-0-------3-3-3-3-------|

Eb :----------------------------|--------------------------|
Bb :----------------------------|--------------------------|
Gb :----------------------------|--------------------------|
Db :----------------------------|--------------------------|
Ab :----------------------------|--------------------------|
Eb :----------------------------|--------------------------|

============================================================================

Eb :----------------------------|--------------------------|
Bb :----------------------------|--------------------------|
Gb :----------------------------|--------------------------|
Db :----------------------------|--------------------------|
Ab :----------------------------|------4-4-4---------5-5-5-|
Eb :0---0-0-0-0-0-0-0-0-0-0-0-0-|0-0-0-------3-3-3-3-------|

Eb :----------------------------|--------------------------|
Bb :----------------------------|--------------------------|
Gb :9-9-9-9-9-9---9-9-9-9-9-9-9-|--------------------------|
Db :--------------------------9-|--------------------------|
Ab :7-7-7-7-7-7---7-7-7-7-7-7-7-|------4-4-4---------5-5-5-|
Eb :0---0-0-0-0-0-0-0-0-0-0-0-0-|0-0-0-------3-3-3-3-------|

Gb :----------------------------|--------------------------|
Db :----------------------------|--------------------------|
Ab :----------------------------|------4-4-4---------5-5-5-|
Eb :0---0-0-0-0-0-0-0-0-0-0-0-0-|0-0-0-------3-3-3-3-------|

Eb :----------------------------|--------------------------|
Bb :----------------------------|--------------------------|
Gb :----------------------------|--------------------------|
Db :----------------------------|--------------------------|
Ab :----------------------------|--------------------------|
Eb :----------------------------|--------------------------|

============================================================================

Eb :--------------------------|--------------------------|
Bb :--------------------------|--------------------------|
Gb :--------------------------|--------------------------|
Db :--------------------------|--------------------------|
Ab :--------------------------|------4-4-4---------5-5-5-|
Eb :0-0-0-0-0-0-0-0-0-0-0-0-0-|0-0-0-------3-3-3-3-------|

Eb :--------------------------|--------------------------|
Bb :--------------------------|--------------------------|
Gb :9-9-9-9-9-9-9-9-9-9-9-9-9-|--------------------------|
Db :--------------------------|--------------------------|
Ab :7-7-7-7-7-7-7-7-7-7-7-7-7-|------4-4-4---------5-5-5-|
Eb :0-0-0-0-0-0-0-0-0-0-0-0-0-|0-0-0-------3-3-3-3-------|

Gb :--------------------------|--------------------------|
Db :--------------------------|--------------------------|
Ab :--------------------------|------4-4-4---------5-5-5-|
Eb :0-0-0-0-0-0-0-0-0-0-0-0-0-|0-0-0-------3-3-3-3-------|

Eb :--------------------------|--------------------------|
Bb :--------------------------|--------------------------|
Gb :--------------------------|--------------------------|
Db :--------------------------|--------------------------|
Ab :--------------------------|--------------------------|
Eb :--------------------------|--------------------------|

============================================================================

Eb :----------------------------|--------------------------|
Bb :----------------------------|--------------------------|
Gb :----------------------------|--------------------------|
Db :----------------------------|--------------------------|
Ab :----------------------------|------4-4-4---------5-5-5-|
Eb :0---0-0-0-0-0-0-0-0-0-0-0-0-|0-0-0-------3-3-3-3-------|

Eb :----------------------------|--------------------------|
Bb :----------------------------|--------------------------|
Gb :9-9-9-9-9-9---9-9-9-9-9-9-9-|--------------------------|
Db :--------------------------9-|--------------------------|
Ab :7-7-7-7-7-7---7-7-7-7-7-7-7-|------4-4-4---------5-5-5-|
Eb :0---0-0-0-0-0-0-0-0-0-0-0-0-|0-0-0-------3-3-3-3-------|

Gb :----------------------------|--------------------------|
Db :----------------------------|--------------------------|
Ab :----------------------------|------4-4-4---------5-5-5-|
Eb :0---0-0-0-0-0-0-0-0-0-0-0-0-|0-0-0-------3-3-3-3-------|

Eb :----------------------------|--------------------------|
Bb :----------------------------|--------------------------|
Gb :----------------------------|--------------------------|
Db :----------------------------|--------------------------|
Ab :----------------------------|--------------------------|
Eb :----------------------------|--------------------------|

============================================================================

Eb :--------------------------|| --------------------------------------|
Bb :--------------------------|| --------------------------------------|
Gb :--------------------------||*--------------------------------------|
Db :--------------------------||*16-15-14-13-12-11-10-9-8-7-6-5-4-3-2-2|
Ab :--------------------------|| --------------------------------------|
Eb :0-0-0-0-0-0-0-0-0-0-0-0-0-|| --------------------------------------|

Eb :--------------------------|| --------------------------------------|
Bb :--------------------------|| --------------------------------------|  slide baby
Gb :9-9-9-9-9-9-9-9-9-9-9-9-9-||*--------------------------------------|
Db :--------------------------||*-9--8--7--6--5--4--3-2-1-0------------|
Ab :7-7-7-7-7-7-7-7-7-7-7-7-7-|| -7--6--5--4--3--2--1-0----------------|
Eb :0-0-0-0-0-0-0-0-0-0-0-0-0-|| -0------------------------------------|

Gb :--------------------------|| --------------------------------------|
Db :--------------------------||*--------------------------------------|
Ab :--------------------------||*--------------------------------------|
Eb :0-0-0-0-0-0-0-0-0-0-0-0-0-|| 14-13-12-11-10--9--8-7-6-5-4-3-2-1-0-0|

Eb :--------------------------|| --------------------------------------|
Bb :--------------------------|| --------------------------------------|
Gb :--------------------------||*--------------------------------------|
Db :--------------------------||*--------------------------------------|
Ab :--------------------------|| --------------------------------------|
Eb :--------------------------|| --------------------------------------|

============================================================================

Eb :---------------------------|---------------------------|
Bb :---------------------------|---------------------------|
Gb :---------------------------|---------------------------|
Db :---------------------------|---------------------------|
Ab :------4-4-4---------5-5-5-5|------4-4-4---------5-5-5-5|
Eb :0-0-0-------3-3-3-3--------|0-0-0-------3-3-3-3--------|

Eb :---------------------------|---------------------------|
Bb :---------------------------|---------------------------|
Gb :---------------------------|---------------------------|
Db :---------------------------|---------------------------|
Ab :------4-4-4---------5-5-5-5|------4-4-4---------5-5-5-5|
Eb :0-0-0-------3-3-3-3--------|0-0-0-------3-3-3-3--------|

Gb :---------------------------|---------------------------|
Db :---------------------------|---------------------------| outro C_C_C_C_ARMEL!
Ab :------4-4-4---------5-5-5-5|------4-4-4---------5-5-5-5|
Eb :0-0-0-------3-3-3-3--------|0-0-0-------3-3-3-3--------|

Eb :---------------------------|---------------------------|
Bb :---------------------------|---------------------------|
Gb :---------------------------|---------------------------|
Db :---------------------------|---------------------------|
Ab :---------------------------|---------------------------|
Eb :---------------------------|---------------------------|

============================================================================

Eb :---------------------------|---------------------------|
Bb :---------------------------|---------------------------|
Gb :---------------------------|---------------------------|
Db :---------------------------|---------------------------|
Ab :------4-4-4---------5-5-5-5|------4-4-4---------5-5-5-5|
Eb :0-0-0-------3-3-3-3--------|0-0-0-------3-3-3-3--------|

Eb :---------------------------|---------------------------|
Bb :---------------------------|---------------------------|
Gb :---------------------------|---------------------------|
Db :---------------------------|---------------------------|
Ab :------4-4-4---------5-5-5-5|------4-4-4---------5-5-5-5|
Eb :0-0-0-------3-3-3-3--------|0-0-0-------3-3-3-3--------|





Comments


Popular Rudy And Blitz tabs & chords
Type Of Thing Bass Tabs
Be A Loaf Tabs
Just About Done Tabs
Shes So Brown Tabs
Teach Tabs
Thanks Anyway Tabs
Turtle Frown Tabs
Type Of Thing Tabs
Type Of Thing 1 Tabs
Used It All Up Tabs


Song lyrics



↑ Back to top | Tablatures and chords are parodies/interpretations of the original songs. You may use it for private study, scholarship, research or language learning purposes only
© 2014 AZChords.com Contact us | Privacy policy | DMCA | Add/correct tabs | Request tabs | Top 50 tabs