» » »

Rudy And Blitz, Be A Loaf Tabs (ver.1)

Artists:  A B C D E F G H I J K L M N O P Q R S T U V W X Y Z # 

Be A Loaf Tabs (ver.1)

Rudy And Blitz Tabs
 Rating:
4/5 (4 votes)
Be A Loaf lessons Tabs too difficult? Try these video lessons and learn fast
                Be a Loaf
                     
                           INTRO/VERSE
Eb :----------------|----------------|----------------|----------------|
Bb :----------------|----------------|----------------|----------------| guitar 1
Gb :----------------|----------------|----------------|----------------|
Db :----------------|----------------|----------------|----------------|
Ab :----------------|4-4-4-4-4-4-4-4-|4-4-4-4-4-4-4-4-|4-4-4-4-4-4-4-4-|
Eb :----------------|----------------|----------------|----------------|
                     Play muted and clean
Gb :----------------|----------------|----------------|----------------|
Db :----------------|----------------|----------------|----------------| bass
Ab :----------------|----------------|----------------|----------------|
Eb :----------------|----------------|----------------|----------------|

Eb :----------------|----------------|----------------|----------------|
Bb :----------------|----------------|----------------|----------------|
Gb :----------------|----------------|----------------|----------------|
Db :----------------|----------------|----------------|----------------| guitar 2
Ab :----------------|----------------|----------------|----------------|
Eb :----------------|----------------|----------------|----------------|

============================================================================

Eb :----------------|-----------------|-----------------------|
Bb :----------------|-----------------|-----------------------|
Gb :----------------|-----------------|-----------------------|
Db :----------------|9---9-9-9-9-9-11-|--11-11-11-11-11-11-11-|
Ab :4-4-4-4-4-4-4-4-|7---7-7-7-7-7--9-|---9--9--9--9--9--9--9-|
Eb :----------------|-----------------|-----------------------|
                     Unmuted/distortion
Gb :----------------|-----------------|-----------------------|
Db :----------------|-----------------|-----------------------|
Ab :----------------|7---7-7-7-7-7--9-|---9--9--9--9--9--9--9-|
Eb :----------------|-----------------|-----------------------|

Eb :----------------|-----------------|-----------------------|
Bb :----------------|-----------------|-----------------------|
Gb :----------------|-----------------|-----------------------|
Db :----------------|9---9-9-9-9-9-11-|--11-11-11-11-11-11-11-|
Ab :----------------|7---7-7-7-7-7--9-|---9--9--9--9--9--9--9-|
Eb :----------------|-----------------|-----------------------|

============================================================================

Eb :----------------|----------------|-----------------|
Bb :----------------|----------------|-----------------|
Gb :----------------|----------------|-----------------|
Db :6---------------|----------------|9---9-9-9-9-9-11-|
Ab :4---4-4-4-4-4-4-|4-4-4-4-4-4-4-4-|7---7-7-7-7-7--9-|
Eb :----------------|----------------|-----------------|
        muted/distorted               unmuted/distorted
Gb :----------------|----------------|-----------------|
Db :----------------|----------------|-----------------|
Ab :4---4-4-4-4-4-4-|4-4-4-4-4-4-4-4-|7---7-7-7-7-7--9-|
Eb :----------------|----------------|-----------------|

Eb :----------------|----------------|-----------------|
Bb :----------------|----------------|-----------------|
Gb :----------------|----------------|-----------------|
Db :6---------------|----------------|9---9-9-9-9-9-11-|
Ab :4---*-----------|----------------|7---7-7-7-7-7--9-|
Eb :----------------|----------------|-----------------|

============================================================================

Eb :-----------------------|----------------|----------------|
Bb :-----------------------|----------------|----------------|
Gb :-----------------------|----------------|----------------|
Db :--11-11-11-11-11-11-11-|6---------------|----------------|
Ab :---9--9--9--9--9--9--9-|4---4-4-4-4-4-4-|4-4-4-4-4-4-4-4-|
Eb :-----------------------|----------------|----------------|
                                muted/distorted               
Gb :-----------------------|----------------|----------------|
Db :-----------------------|----------------|----------------|
Ab :---9--9--9--9--9--9--9-|4---4-4-4-4-4-4-|4-4-4-4-4-4-4-4-|
Eb :-----------------------|----------------|----------------|

Eb :-----------------------|----------------|----------------|
Bb :-----------------------|----------------|----------------|
Gb :-----------------------|----------------|----------------|
Db :--11-11-11-11-11-11-11-|6---------------|----------------|
Ab :---9--9--9--9--9--9--9-|4---*-----------|----------------|
Eb :-----------------------|----------------|----------------|

============================================================================

Eb :-----------------|-----------------------|----------------|
Bb :-----------------|-----------------------|----------------|
Gb :-----------------|-----------------------|----------------|
Db :9---9-9-9-9-9-11-|--11-11-11-11-11-11-11-|6---6-6-6-6-6-6-|
Ab :7---7-7-7-7-7--9-|---9--9--9--9--9--9--9-|4---4-4-4-4-4-4-|
Eb :-----------------|-----------------------|----------------|

Gb :-----------------|-----------------------|----------------|
Db :-----------------|-----------------------|----------------|
Ab :7---7-7-7-7-7--9-|---9--9--9--9--9--9--9-|4---4-4-4-4-4-4-|
Eb :-----------------|-----------------------|----------------|

Eb :-----------------|-----------------------|----------------|
Bb :-----------------|-----------------------|----------------|
Gb :-----------------|-----------------------|----------------|
Db :9---9-9-9-9-9-11-|--11-11-11-11-11-11-11-|6---6-6-6-6-6-6-|
Ab :7---7-7-7-7-7--9-|---9--9--9--9--9--9--9-|4---4-4-4-4-4-4-|
Eb :-----------------|-----------------------|----------------|

============================================================================

Eb :----------------|
Bb :----------------|
Gb :----------------|
Db :6-6-6-6-6-6-6---|
Ab :4-4-4-4-4-4-4-*-|
Eb :----------------|

Gb :----------------|
Db :----------------|
Ab :4-4-4-4-4-4-4-*-|
Eb :----------------|

Eb :----------------|
Bb :----------------|
Gb :----------------|
Db :6-6-6-6-6-6-6---|
Ab :4-4-4-4-4-4-4-*-|
Eb :----------------|

============================================================================
============================================================================
                     CHORUS
Eb :----------------|----------------|----------------|----------------|
Bb :----------------|----------------|----------------|----------------|
Gb :----------------|----------------|----------------|----------------|
Db :6---x-----------|--6-6-----------|6---x-----------|--6-6-----------|
Ab :4---x-8-8---x-x-|x-4-4-6-6-------|4---x-8-8---x-x-|x-4-4-6-6-------|
Eb :----x-6-6---x-x-|x-----4-4-------|----x-6-6---x-x-|x-----4-4-------|

Gb :----------------|----------------|----------------|----------------|
Db :----------------|----------------|----------------|----------------|
Ab :4---------------|--4-4-----------|4---------------|--4-4-----------|
Eb :----x-6-6---x-x-|x-----4-4-------|----x-6-6---x-x-|x-----4-4-------|

Eb :----------------|----------------|----------------|----------------|
Bb :----------------|----------------|----------------|----------------|
Gb :----------------|----------------|----------------|----------------|
Db :6---x-----------|--6-6-----------|6---x-----------|--6-6-----------|
Ab :4---x-8-8---x-x-|x-4-4-6-6-------|4---x-8-8---x-x-|x-4-4-6-6-------|
Eb :----x-6-6---x-x-|x-----4-4-------|----x-6-6---x-x-|x-----4-4-------|

============================================================================

Eb :----------------|----------------|----------------|-----------------|
Bb :----------------|----------------|----------------|-----------------|
Gb :----------------|----------------|----------------|-----------------|
Db :6---x-----------|--6-6-----------|6---x-----------|--6-6------------|
Ab :4---x-8-8---x-x-|x-4-4-6-6-------|4---x-8-8---x-x-|x-4-4-6-6---\----|
Eb :----x-6-6---x-x-|x-----4-4-------|----x-6-6---x-x-|x-----4-4---\----|

Gb :----------------|----------------|----------------|-----------------|
Db :----------------|----------------|----------------|-----------------|
Ab :4---------------|--4-4-----------|4---------------|--4-4------------|
Eb :----x-6-6---x-x-|x-----4-4-------|----x-6-6---x-x-|x-----4-4---\----|

Eb :----------------|----------------|----------------|-----------------|
Bb :----------------|----------------|----------------|-----------------|
Gb :----------------|----------------|----------------|-----------------|
Db :6---x-----------|--6-6-----------|6---x-----------|--6-6------------|
Ab :4---x-8-8---x-x-|x-4-4-6-6-------|4---x-8-8---x-x-|x-4-4-6-6---\----|
Eb :----x-6-6---x-x-|x-----4-4-------|----x-6-6---x-x-|x-----4-4---\----|

============================================================================

Eb :----------------|----------------|----------------|----------------|
Bb :----------------|----------------|----------------|----------------|
Gb :----------------|----------------|----------------|----------------|
Db :----------------|----------8-----|8-8-8-8-8-------|----------8-----|
Ab :4-4-4-4-4-4-6---|6-6-6-6-6-6-----|6-6-6-6-6-6---6-|6-6-6-6-6-6-----|
Eb :2-2-2-2-2-2-4---|4-4-4-4-4-------|----------4---4-|4-4-4-4-4-------|

Gb :----------------|----------------|----------------|----------------|
Db :----------------|----------------|----------------|----------------|
Ab :----------------|----------6-----|6-6-6-6-6-------|----------6-----|
Eb :2-2-2-2-2-2-4---|4-4-4-4-4-------|----------4---4-|4-4-4-4-4-------|

Eb :----------------|----------------|----------------|----------------|
Bb :----------------|----------------|----------------|----------------|
Gb :----------------|----------------|----------------|----------------|
Db :----------------|----------8-----|8-8-8-8-8-------|----------8-----|
Ab :4-4-4-4-4-4-6---|6-6-6-6-6-6-----|6-6-6-6-6-6---6-|6-6-6-6-6-6-----|
Eb :2-2-2-2-2-2-4---|4-4-4-4-4-------|----------4---4-|4-4-4-4-4-------|

============================================================================

Eb :-----------------|---------------------------|----------------|
Bb :-----------------|---------------------------|----------------|
Gb :-----------------|---------------------------|----------------|
Db :8-8-8-8-8--------|--------------------8------|8-8-8-8-8-------|
Ab :6-6-6-6-6-6---6--|6---6---6---6---6---6------|6-6-6-6-6-6---6-|
Eb :----------4---4--|4---4---4---4---4----------|----------4---4-|

Gb :-----------------|---------------------------|----------------|
Db :-----------------|---------------------------|----------------|
Ab :6-6-6-6-6--------|----------------------6----|6-6-6-6-6-------|
Eb :----------4-----4|--4---4---4---4---4--------|----------4---4-|

Eb :-----------------|---------------------------|----------------|
Bb :-----------------|---------------------------|----------------|
Gb :-----------------|---------------------------|----------------|
Db :8-8-8-8-8--------|--------------------8------|8-8-8-8-8-------|
Ab :6-6-6-6-6-6---6--|6---6---6---6---6---6------|6-6-6-6-6-6---6-|
Eb :----------4---4--|4---4---4---4---4----------|----------4---4-|

============================================================================

Eb :----------------|----------------|----------------|
Bb :----------------|----------------|----------------|
Gb :----------------|----------------|----------------|
Db :----------------|----------------|----------------|
Ab :6-6-6-6-6-4-4-4-|4-4-6-6---------|----------------|
Eb :4-4-4-4-4-2-2-2-|2-2-4-4---------|----------------|

Gb :----------------|----------------|----------------|
Db :----------------|----------------|----------------|
Ab :----------------|----------------|----------------|
Eb :4-4-4-4-4-2-2-2-|2-2-4-4---------|----------------|

Eb :----------------|----------------|----------------|
Bb :----------------|----------------|----------------|
Gb :----------------|----------------|----------------|
Db :----------------|----------------|----------------|
Ab :6-6-6-6-6-4-4-4-|4-4-6-6---------|----------------|
Eb :4-4-4-4-4-2-2-2-|2-2-4-4---------|----------------|

============================================================================
============================================================================

now play INTRO/VERSE
============================================================================
 
now play CHORUS
============================================================================
============================================================================
                       BRIDGE
Eb :-----------------|----------------|-----------------|--9-----9-------|
Bb :-----------------|----------------|-----------------|----------------|
Gb :6-6---6----------|----------------|6-6---6----------|6-----6---------|
Db :----8---8-\------|8-*-6-----6-----|----8---8-\------|----------------|
Ab :-----------------|----------------|-----------------|----------------|
Eb :-----------------|----------------|-----------------|----------------|

Gb :-----------------|----------------|-----------------|----------------|
Db :-----------------|----------------|-----------------|--6-----6-------|
Ab :4----------------|----------------|4----------------|----------------|
Eb :----6---6--------|6---4-----4-----|----6---6--------|4-----4---------|

Eb :-----------------|----------------|-----------------|--9-----9-------|
Bb :-----------------|----------------|-----------------|----------------|
Gb :6-6---6----------|----------------|6-6---6----------|6-----6---------|
Db :----8---8-\------|8-*-6-----6-----|----8---8-\------|----------------|
Ab :-----------------|----------------|-----------------|----------------|
Eb :-----------------|----------------|-----------------|----------------|

============================================================================

Eb :-----------------|----------------|-----------------|--9-----9-------|
Bb :-----------------|----------------|-----------------|----------------|
Gb :6-6---6----------|----------------|6-6---6----------|6-----6---------|
Db :----8---8-\------|8-*-6-----6-----|----8---8-\------|----------------|
Ab :-----------------|----------------|-----------------|----------------|
Eb :-----------------|----------------|-----------------|----------------|

Gb :-----------------|----------------|-----------------|----------------|
Db :-----------------|----------------|-----------------|--6-----6-------|
Ab :4----------------|----------------|4----------------|----------------|
Eb :----6---6--------|6---4-----4-----|----6---6--------|4-----4---------|

Eb :-----------------|----------------|-----------------|--9-----9-------|
Bb :-----------------|----------------|-----------------|----------------|
Gb :6-6---6----------|----------------|6-6---6----------|6-----6---------|
Db :----8---8-\------|8-*-6-----6-----|----8---8-\------|----------------|
Ab :-----------------|----------------|-----------------|----------------|
Eb :-----------------|----------------|-----------------|----------------|

============================================================================
============================================================================

 End with chorus and let last note ring to fade
============================================================================
============================================================================
============================================================================
============================================================================
                   Extra sh*t at the end
Eb :----------------|----------------|----------------|----------------|
Bb :----5-----------|----------------|----------------|5---------5-----|
Gb :----------------|----------------|----------------|----------------|
Db :2-------2-------|----------------|----------------|----2---------2-|
Ab :----------------|----------------|----------------|----------------|
Eb :----------------|----------------|----------------|----------------|

Gb :----------------|----------------|----------------|----------------|
Db :----------------|----------------|----------------|----------------|
Ab :----------------|----------------|----------------|----------------|
Eb :----------------|----------------|----------------|----------------|

Eb :----------------|----------------|----------------|----------------|
Bb :----------------|----------------|----------------|5-7---9---------|
Gb :----------------|----------------|----------------|----------------|
Db :----------------|----------------|----------------|----------------|
Ab :----------------|----------------|----------------|----------------|
Eb :----------------|----------------|----------------|----------------|

============================================================================

Eb :----------------|-----------------|----------------|----------------|
Bb :----5-----------|5----------5-----|----5-----------|5---------5-----|
Gb :----------------|-----------------|----------------|----------------|
Db :--2-----2-------|-----2---------2-|--2-----2-------|----2---------2-|
Ab :----------------|-----------------|----------------|----------------|
Eb :----------------|-----------------|----------------|----------------|

Gb :----------------|-----------------|----------------|----------------|
Db :----------------|-----------------|----------------|----------------|
Ab :----------------|-----------------|----------------|----------------|
Eb :----------------|-----------------|----------------|----------------|

Eb :----------------|-----------------|----------------|----------------|
Bb :----------------|5h-7---7---5-----|----------------|5-7---9---------|
Gb :----------------|-----------------|----------------|----------------|
Db :----------------|-----------------|----------------|----------------|
Ab :----------------|-----------------|----------------|----------------|
Eb :----------------|-----------------|----------------|----------------|

============================================================================

Eb :----------------|----------------|----------------|----------------|
Bb :----5-----------|5---------5-----|----5-----------|5---------------|
Gb :----------------|----------------|----------------|----------------|
Db :--2-----2-------|----2---------2-|--2-----2-------|----------------|
Ab :----------------|----------------|----------------|----------------|
Eb :----------------|----------------|----------------|----------------|

Gb :----------------|----------------|----------------|----------------|
Db :----------------|----------------|----------------|----------------|
Ab :----------------|----------------|----------------|----------------|
Eb :----------------|----------------|----------------|----------------|

Eb :----------------|----------------|----------------|----------------|
Bb :----------------|5---------------|5-7---5---------|5---------------|
Gb :----------------|----------------|----------------|----------------|
Db :----------------|----------------|----------------|----------------|
Ab :----------------|----------------|----------------|----------------|
Eb :----------------|----------------|----------------|----------------|
            
Submit corrections

comments powered by Disqus
↑ Back to top | Rudy And Blitz Tabs for Be A Loaf. Lyrics for acoustic guitar and electric guitar. Tablatures and chords are parodies/interpretations of the original songs. You may use it for private study, scholarship, research or language learning purposes only