» » »

Roy Orbison, It's Over Bass tabs (ver.1)

Artists:  A B C D E F G H I J K L M N O P Q R S T U V W X Y Z # 

It's Over Bass tabs (ver.1)

Roy Orbison Tabs
Rating:
0/5 (0 votes)
It's Over lessons Tabs too difficult? Try these video lessons and learn fast
                It's over
Roy Orbison


G||-----------------------|----------------------|----------------------|
D||-----------------------|----------------------|----------------------|
A||--------------------3--|--8------8--8---------|--8------8--8---------|
E||-----------------------|-----------------8----|-----------------8----|


Couplet 1

     F              C       F              C       F              C        Am
G||----------------------|----------------------|-----------------------|----------------------|
D||----------------------|----------------------|-----------------------|----------------------|
A||--8------8--8---------|--8------8--8---------|--8------8--8----------|------------7------7--|
E||-----------------8----|-----------------8----|-----------------8--7--|--5------5------------|


  Am                     C7        F            F         C            C7
----------------------|----------------------|----------------------|------------------------|
----------------------|----------------------|----------------------|------------------------|
----------------------|------------8------8--|--8------8------------|------------------------|
--5------7--8------8--|--8------8------------|------------8------8--|--8------8--8--8--8--8--|


  F              C       F              C       F              C        Am
----------------------|----------------------|-----------------------|----------------------|
----------------------|----------------------|-----------------------|----------------------|
--8------8--8---------|--8------8--8---------|--8------8--8----------|------------7------7--|
-----------------8----|-----------------8----|-----------------8--7--|--5------5------------|


            Dm           Bb        G7                     C7                     F
----------------------|----------------------|----------------------|----------------------|
----------------------|-------------------5--|--5----5--------------|----------------------|
------------5------5--|----------------------|----------------------|------------8------8--|
--5------5------------|--6------6--3---------|------------8------8--|--8------8------------|


  F
----------------------|----------------------|
----------------------|----------------------|
--8------8--8------8--|--8----8----7------7--|
----------------------|----------------------|


Bridge

G||----------------------|-----------------------|----------------------|-----------------------|
D||----------------------|-----------------------|----------------------|-----------------------|
A||--7------7--8------8--|--8----8--8--7------7--|--7------7--8------8--|--8----8--8--7------7--|
E||----------------------|-----------------------|----------------------|-----------------------|


            Fmaj7                    Fmaj7                        G            F         G
----------------------|-----------------------------|-----------------------|--------------------|
----------------------|-----------------------------|-------------5------5--|--3------3--5------5|
--7------7--8------8--|--8--8--8--8--8-----8--8--8--|--8---8---8------------|--------------------|
----------------------|-----------------------------|-----------------------|--------------------|


  F         G                                                C
----------------------|-----------------------|------------------------|----------------------|
--3------3--5------5--|--5--5----5--5------5--|--3--3--2---------------|----------------------|
----------------------|-----------------------|-----------5--3------3--|--3------3--3------3--|
----------------------|-----------------------|------------------------|----------------------|


  Em                     G                        C         C
----------------------|------------------------|----------------------|-------------------------|
----------------------|--5------5--5--5--5--5--|----------------------|-------------------------|
--7------7--7------8--|------------------------|----------------------|-------------------------|
----------------------|------------------------|--8------8--8------8--|--8----8--8--8--8--8--8--|


Couplet 2

G||----------------------|----------------------|-----------------------|----------------------|
D||----------------------|----------------------|-----------------------|----------------------|
A||--8------8--8---------|--8------8--8---------|--8------8--8----------|------------7------7--|
E||-----------------8----|-----------------8----|-----------------8--7--|--5------5------------|


  Am                     C7        F            F         C            C7
----------------------|----------------------|----------------------|------------------------|
----------------------|----------------------|----------------------|------------------------|
----------------------|------------8------8--|--8------8------------|------------------------|
--5------7--8------8--|--8------8------------|------------8------8--|--8------8--8--8--8--8--|


  F              C       F              C       F              C        Am
----------------------|----------------------|-----------------------|----------------------|
----------------------|----------------------|-----------------------|----------------------|
--8------8--8---------|--8------8--8---------|--8------8--8----------|------------7------7--|
-----------------8----|-----------------8----|-----------------8--7--|--5------5------------|


            Dm           Bb        G7                     C7            C7
----------------------|----------------------|-----------------------|-------------------------|
----------------------|------------5------5--|--5----5---------------|-------------------------|
------------5------5--|----------------------|-----------------------|-------------------------|
--5------5------------|--6------6------------|------------8----8--8--|--8----8--8--8--8--8--8--|


Final

     C7
G||------------------------|----------------------|------------------------|
D||------------------------|----------------------|------------------------|
A||------------------------|----------------------|------------------------|
E||--8---8---8--8---8---8--|--8------8--8------8--|--8--8--8--8--8---------|


  F
------------------------|------------------------|------------------------|
------------------------|------------------------|------------------------|
--8----8--8--8----8--8--|--8----8--8--8----8--8--|--8-----8--8--8---------|
------------------------|------------------------|------------------------|
            

comments powered by Disqus
↑ Back to top | Roy Orbison Bass for It's Over. Lyrics for acoustic guitar and electric guitar. Tablatures and chords are parodies/interpretations of the original songs. You may use it for private study, scholarship, research or language learning purposes only