» » »

Roy Orbison, Claudette Tabs (ver.1)

Artists:  A B C D E F G H I J K L M N O P Q R S T U V W X Y Z # 

Claudette Tabs (ver.1)

Roy Orbison Tabs
Rating:
5/5 (1 vote)
Claudette lessons Tabs too difficult? Try these video lessons and learn fast
                -------------------------
-------------------------

Fun Facts: 
-This song was named after Roy Orbison's first wife
-The Everly Brothers recorded this as their B side to their No.1 hit
 "All I have to do is Dream"

Tuning: Standard
-------------------
Intro:

E|-------------------|
B|-------------------|
G|-1-0-0-0-1-0-0-0-1-|
D|-2-0-0-0-2-0-0-0-2-|
A|-2-0-0-0-2-0-0-0-2-|
E|-0-0-0-0-0-0-0-0-0-| x3

Verse:

e|----------------------------------------------|
B|----------------------------------------------|
G|----------------------------------------------|
D|---------------2-----------------2------------|
A|---------2-2-4-------------2-2-4--------------|
E|-0-0-3-4-----------0-0-3-4--------------------| x3

e|--------------------------------------x-------|
B|--------------------------------------4-------|
G|---------------2-----------------2----4-------|
D|---------2-2-4-------------2-2-4------4-------|
A|-0-0-3-4-----------0-0-3-4------------2-------|
E|--------------------------------------x-------|

Chorus:

e|-------------------------------------------------------|
B|-------------------------------------------------------|
G|-------------------------------------------------------|
D|-----------------2------------------2------------------|
A|-------2---0-2/4----------2---0-2/4-----------2--------|
E|-0-2/4--------------0-2/4---------------0-2/4----------|

e|-------------------------------------------------------|
B|-------------------------------------------------------|
G|-------------------------------------------------------|
D|-------2---------2---------2---------2-----------------|
A|-2-4/6-----0-2/4-----2-4/6-----0-2/4-------------------|
E|-------------------------------------------------------|

e|-------------------------------------------------------|
B|-------------------------------------------------------|
G|-------------------------------------------------------|
D|-----------------2-------------------2-----------------|
A|-------2---0-2/4-----------2---0-2/4-------------------|
E|-0-2/4---------------0-2/4-----------------------------|

Post-Chorus:

E|-------------------|
B|-------------------|
G|-1-0-0-0-1-0-0-0-1-|
D|-2-0-0-0-2-0-0-0-2-|
A|-2-0-0-0-2-0-0-0-2-|
E|-0-0-0-0-0-0-0-0-0-| x2 (Listen to the song, at the end it does it 3x)


| /  slide
| h  hammer-on
| p  pull-off
| ~  vibrato
| +  harmonic
| x  Mute note
===============================================================================
            

comments powered by Disqus
↑ Back to top | Roy Orbison Tabs for Claudette. Lyrics for acoustic guitar and electric guitar. Tablatures and chords are parodies/interpretations of the original songs. You may use it for private study, scholarship, research or language learning purposes only