>
 >
Nephesh

Nephesh Guitar Tabs

Roy Buchanan - Nephesh chords, tabs, tablatures, lyrics

Guitar lessons | Add/correct | Request | Top 50 tabs Artists:  A B C D E F G H I J K L M N O P Q R S T U V W X Y Z 0-9

Nephesh Guitar Tabs – Roy Buchanan

CD, Sheet music, Poster

Do you like Nephesh? Share with your friends now
Tabs
ROY BUCHANAN
NEPHESH

TUNING: STANDARD
TEMPO: 98

[0:16]
|--------------------------------------------------------------------------------|
|-(4)/6--8--10b12r10b12r10b12--10p8---10b12r10b12r10p(8)-8h10p8\3h5p3------------|
|----------------------------------------------------------------------2b4r2p0---|
|--------------------------------------------------------------------------------|
|--------------------------------------------------------------------------------|
|--------------------------------------------------------------------------------|


|----------------------------10b12--10-------------------------------------------|
|--------8--8-----8~---10b12-------------10b12p8h10~--(8)/10b12-pb12-pb12r10p(8)-|
|-(7)/9--------9-----------------------------------------------------------------|
|--------------------------------------------------------------------------------|
|--------------------------------------------------------------------------------|
|--------------------------------------------------------------------------------|


|--------------------------------10b12--10---------------------------------------|
|-10b--10b12r10p8-----8~---10b12---------------10b12r10p8--10b-10p8----------8---|
|------------------9--------------------------------------------------(7)/9------|
|--------------------------------------------------------------------------------|
|--------------------------------------------------------------------------------|
|--------------------------------------------------------------------------------|


|-------------------------------------------10b12--10----------------------------|
|-10b12r10b12p8~-----------------8~---10b12---------------10b12r10p8-(8)/10~-----|
|------------------(5)/7--(7)/9--------------------------------------------------|
|--------------------------------------------------------------------------------|
|--------------------------------------------------------------------------------|
|--------------------------------------------------------------------------------|


|----10-------------------------------------------------------10--10--7--10------|
|-10-----10b12r10--8h10p8~----10b12--10--8-----8----8--10b12---------------------|
|-------------------------------------------9------------------------------------|
|--------------------------------------------------------------------------------|
|--------------------------------------------------------------------------------|
|--------------------------------------------------------------------------------|


|-10--10--7--10---10b12r10-------------------------------------------------------|
|------------------------------10b12r10p8--8~--8---10b12--10--8---------8h10p8~--|
|----------------------------------------------------------------(7)/9-----------|
|--------------------------------------------------------------------------------|
|--------------------------------------------------------------------------------|
|--------------------------------------------------------------------------------|


[1:31]
|-----------10--10--12--13b15--pb15r13---10--12----------------------------------|
|-8--10b12---------------------------------------(10)\8~---10b12r10p8--10b12r10~-|
|--------------------------------------------------------------------------------|
|--------------------------------------------------------------------------------|
|--------------------------------------------------------------------------------|
|--------------------------------------------------------------------------------|


|-8----------------------------------------------------------------------10b12---|
|----8b10r8b10r8b10r8\6b7--------------8--8---------8--8--[10b12]--10b12---------|
|-------------------------7~----(7)/9--------(7)/9-------------------------------|
|--------------------------------------------------------------------------------|
|--------------------------------------------------------------------------------|
|--------------------------------------------------------------------------------|
      
                                                          
|--------------------------------------------------------------------------------|
|-10b12r10p8~----10b12r10b12--8h10p8---3b5r3b6r3---------------------------8--8--|
|---------------------------------------------------2b4r2p0h2p0-----(7)/9--------|
|--------------------------------------------------------------------------------|
|--------------------------------------------------------------------------------|
|--------------------------------------------------------------------------------|


|-----------------7-10--10b12--10~---------------10---10--7--------10------------|
|----8--8--10b12---------------------10b12r10-8--------------10\8------10b12r10--|
|-9------------------------------------------------------------------------------|
|--------------------------------------------------------------------------------|
|--------------------------------------------------------------------------------|
|--------------------------------------------------------------------------------|


|--------------------------------------10b12--12b14--13b15--pb15--pb15r13--12~---|
|-8h10p8~--10b12--10--8-----8--10--8~--------------------------------------------|
|------------------------9-------------------------------------------------------|
|--------------------------------------------------------------------------------|
|--------------------------------------------------------------------------------|
|--------------------------------------------------------------------------------|


|-13b15-pb15-pb15r13-(13)/15~----------------------------------12----------------|
|------------------------------15b17--13--15~--15--12--15--15--------------------|
|------------------------------------------------------------------14b16r14--12~-|
|--------------------------------------------------------------------------------|
|--------------------------------------------------------------------------------|
|--------------------------------------------------------------------------------|


[2:32]
|--------------------------------------------------------------------------------|
|--------8--8-----[10b12]--10b12--10b12r10p8-8~--[10b12]--8-[10]--8-[10b12r10]---|
|-(7)/9--------9-----------------------------------------------------------------|
|--------------------------------------------------------------------------------|
|--------------------------------------------------------------------------------|
|--------------------------------------------------------------------------------|


|---------------------------------13b15--pb15r13--(10)/12--10---------------10---|
|-8b10--6b7--------------8--8----------------------------------10b12r10p8~-------|
|------------7\---(7)/9--------9-------------------------------------------------|
|--------------------------------------------------------------------------------|
|--------------------------------------------------------------------------------|
|--------------------------------------------------------------------------------|


|--------------------------------------------------------------------------------|
|-10b12r10p8~-------8--8~--8--8b10--8--3b5r3-------------------8-----8--8--10b12-|
|---------------/9----------------------------2b4r2p0---(7)/9-----9--------------|
|--------------------------------------------------------------------------------|
|--------------------------------------------------------------------------------|
|--------------------------------------------------------------------------------|


|---------10b12-10--------------------------------10-----------------10----------|
|-8-10b12-----------10b12r10-8~----------8--8----------10b12r10p8---------10b12--|
|---------------------------------(7)/9--------9-------------------9-------------|
|--------------------------------------------------------------------------------|
|--------------------------------------------------------------------------------|
|--------------------------------------------------------------------------------|


|-----------------------10b12r10--7--10~-----------------------------------------|
|-8-10b12r10p8-----8~---------------------10b12r10p8-----8---8-------------------|
|---------------9-------------------------------------9---------2b4r2p0----0h2p0-|
|------------------------------------------------------------------------2-------|
|--------------------------------------------------------------------------------|
|--------------------------------------------------------------------------------|


************************************

| /   slide up
| \   slide down
| h   hammer-on
| p   pull-off
| ~   vibrato
| []  pinch harmonic
| b   bend
| pb  pre-bend
| r   release bend

************************************





Comments


Popular Roy Buchanan tabs & chords
Green Onions Bass Tabs
Hey Joe Bass Tabs
I Am A Lonesome Fugitive Chords
Done Your Daddy Dirty Intro Tabs
Haunted House Tabs
Roys Bluz Tabs
Sweet Dreams Tabs
Sweet Dreams 1 Tabs
The Messiah Will Come Again Tabs
I Am A Lonesome Fugitive Ukulele


Song lyrics



↑ Back to top | Tablatures and chords are parodies/interpretations of the original songs. You may use it for private study, scholarship, research or language learning purposes only
© 2014 AZChords.com Contact us | Privacy policy | DMCA | Add/correct tabs | Request tabs | Top 50 tabs