» » »

Roy Buchanan, Green Onions Bass tabs (ver.1)

Artists:  A B C D E F G H I J K L M N O P Q R S T U V W X Y Z # 

Green Onions Bass tabs (ver.1)

Roy Buchanan Tabs
 Rating:
4/5 (4 votes)
Green Onions lessons Tabs too difficult? Try these video lessons and learn fast
                Tuning: E-A-D-G
\ = slide down
x = muted note

		*Verse 1*

|-------------------------------------------------|
|-------------------------------------------------|
|---------------------------------1-1-3-5-1-1-3-5-|
|-0-1-3-5-0-1-3-5-0-1-3-5-0-1-3-5-----------------|

|-------------------------------------------------|
|-------------------------------------------------|
|-----------------3-3-5-7-0-1-3-5-----------------|
|-0-1-3-5-0-1-3-5-----------------1-1-3-5-1-1-3-5-|

		*Verse 2*
	slap:

|-----------------------------------------------------------|
|-----------------------------------------------------------|
|---------------------------------------1-x-1--35-1-x-1--35-|
|-0-x-0--35-1-x-1-35-0-x-0--35-1-x-1-35---------------------|

|-----------------------------------------------------------|
|-----------------------------------------------------------|
|---------------------------------------3-x-3--57-1-x-1--35-|
|-0-x-0--35-1-x-1-35-0-x-0--35-1-x-1-35---------------------|

		*Verse 3*

|-------------------------------------------------------------------------|
|---------------------------------------------3-5-------------------------|
|-------------3-5-------------3-5-0--0----3-5-----0-------3--3----1--1----|
|-0--0----3-5-----0--0----3-5------------------------0--------------------|

|----|--------------------------------------------------------------------|
|----|-------------3-5---------------------3-5----------------------------|
|----|---------3-5-----3-------1--1----3-5-----3----------3--3----1--1----|
|-7\-|-0--0---------------0-----------------------0-----------------------|

|----|--------------------------------------------------------------------|
|----|-------------3-5---------------------3-5----------------------------|
|----|---------3-5-----3-------1--1----3-5-----3----------5--5----3--3----|
|-7\-|-0--0---------------0-----------------------1-----------------------|

				...Red Hair Jimmy ...
            
Submit corrections

comments powered by Disqus
↑ Back to top | Roy Buchanan Bass for Green Onions. Lyrics for acoustic guitar and electric guitar. Tablatures and chords are parodies/interpretations of the original songs. You may use it for private study, scholarship, research or language learning purposes only