» » »

Royal Wood, Lady In White Chords (ver.1)

Artists:  A B C D E F G H I J K L M N O P Q R S T U V W X Y Z # 

Lady In White Chords (ver.1)

Royal Wood Tabs
 Rating:
4.2/5 (5 votes)
Lady In White lessons Tabs too difficult? Try these video lessons and learn fast
1
                Royal Wood - Lady In White

Capo on 6

Intro
e|------------------------------------------------------------|
B|---0-------0--------1-----0-----1-------1-------0-----------|
G|-------0-------0--------0-----------0-------0-------0-------|
D|-----0-------0---0h2--2------0h2--2-------2-------2-----2---|
A|------------------------------------------------------------|
E|-3-------3-------3--------3--3--------3-------0-------0---2-|

e|------------------------------------------------------------------------|
B|---0-------0--------1-----0-----1-------1-------0-------0-------0-------|
G|-------0-------0--------0-----------0-------0-------0-------0-------0---|
D|-----0-------0---0h2--2------0h2--2-------2-------2-------0-------0-----|
A|------------------------------------------------------------------------|
E|-3-------3-------3--------3--3--------3-------0-------2-------3-------3-|

G             D       G
Oh goodbye my lady in blue
                        C
What is now this man to do?
     Em            G           C
Well I know you'll need this tonight
        G                    C
So I'll think of you lady in white
    G           D         G
For blue is the colour of tears
                           C
An ocean of you wrapped in years
Em            G             C
I know you'll get through tonight
     G                    C
If I think of you lady in white

     G        D            G
Well oh sorry drummer play on
                    C
Remember my lady in song
Em          G            C
I know I'll prove this tonight
     G                   C
If I think of my lady in white

    G           D       G
Yes goodbye my lady in blue
                        C
What is now this man to do?
Em       G          C
I know I love you tonight
        G                    C
So I'll think of you lady in white
        G                    C
So I'll think of you lady in white
   Am        D       G
My beautiful lady in white


G C G  G Am G  G C G  G Am Em D/F# 


G              D         G
Oh goodbye our ladies in blue
                          C
What is now this world to do?
Em                G           C
Well I know we'll need this tonight
         G                      C
Could we think of our ladies in white?
    G           D             G
For blue is the colour of our tears
                               C
It's an ocean of us wrapped in years
Em           G             C
I know we'll get through tonight
      Em           C         G      D
If we sing for our ladies in white...
                                G
Could we sing for our ladies in white?
            
Submit corrections

comments powered by Disqus
↑ Back to top | Royal Wood Chords for Lady In White. Lyrics for acoustic guitar and electric guitar. 1 Tablatures and chords are parodies/interpretations of the original songs. You may use it for private study, scholarship, research or language learning purposes only