» » »

Say Hello Tabs (ver.2)

Artists:  A B C D E F G H I J K L M N O P Q R S T U V W X Y Z # 

Say Hello Tabs (ver.2)

Rosie Thomas
Rating:
0/5 (0 votes)
Tabs too difficult? Try these video lessons and learn fast.
                -------------------------------------------------------------------------------
                             Say Hello - Rosie Thomas
-------------------------------------------------------------------------------

Tuning: standard tuning.  capo 4th fret.

chords:  D        (xx0232)
         F#m      (244222)
         Em       (022000)
         A        (x02220) or (x07655)
         Bm       (x24432)
         Dmaj7/A  (5546xx)

Intro: Arpeggios

    D                 F#m                   Em                  A

e|-----2---------------------------------------------------------------------|
B|---------3-------------2--------------------0-------------------2----------|
G|--------------2------------2-------2------------0--------0---------2-----2-|
D|--0----------------------------4---------------------2-----------------2---|
A|--------------------------------------------------------------0------------|
E|--------------------2---------------------0--------------------------------|

    D                   F#m                  Em                 A

e|-----2----------------------------------------------------------5----------|
B|---------3-------------2--------------------0----------------------5---5---|
G|-------------2------------2-------2------------0-------0-------------6-----|
D|--0--------------0------------4--------------------2-----------------------|
A|--------------------------------------------------------------0------------|
E|---------------------2--------------------0--------------------------------|


Verse:

     D           F#m         Em        A
if i find him if i just follow?

         D           F#m           Em      A
would he hold me and never let me go?


         D             F#m               Em        A
would he let me borrow his wool winter coat?

        D            F#m              Em          A
i don't know.      i...       don't know.


     D       F#m               Em     A
If I see her standing there alone

       D              F#m                     Em     A
At the train station, three stops from her home

       D              F#m          Em             A
I have half a mind to say what I'm thinking anyway

              D   F#m            Em      A
But I don't know...   I don't know


Bridge:

           Bm               F#m        Em              A
There's an airplane in the sky with a banner right behind

      Bm              F#m               Em            A
loneliness is just a crime.  look each other in the eye

            D         F#m        Em     A
And say hello...  oh oh.  oh oh.

            D            F#m        Em     A
and say hello...  oh oh oh.  oh oh.


this last chord (during the talking) is some sort of Dmaj7/A chord with the open strings 
 i figured i'd just tab it out for clarity.

      Dmaj7/A

e|------------0--------------------------------------------------------------|
B|---------0-----------------------------------------------------------------|
G|------6--------------------------------------------------------------------|
D|------4--------------------------------------------------------------------|
A|------5--------------------------------------------------------------------|
E|------5--------------------------------------------------------------------|


************************************

| /   slide up
| \   slide down
| h   hammer-on
| p   pull-off
| ~   vibrato
| +   harmonic
| x   Mute note
| b   Bend
| pb  Pre-bend
| br  Bend release
| pbr Pre-bend release
| brb Bend release bend

************************************
            
Tabs too difficult? Try these video lessons and learn fast.


comments powered by Disqus
↑ Back to top | Tablatures and chords are parodies/interpretations of the original songs. You may use it for private study, scholarship, research or language learning purposes only