» » »

Say Hello Tabs (ver.1)

Artists:  A B C D E F G H I J K L M N O P Q R S T U V W X Y Z # 

Say Hello Tabs (ver.1)

Rosie Thomas
Rating:
5/5 (2 votes)

Hard to play? Try these video lessons and learn fast.
                Rosie Thomas ft. Sufjan Stevens


CAPO 4

introduction:

     D                 F#m              Em              A
e|----2--------------------------------------------------------|
B|------3----------------2---------------0---------------2---2-|
G|--------2h0--0-----------2-----2---------0----0----------2---| 
D|-0--------------------------4---------------2----------------|
A|----------------------------------------------------0--------|
E|-------------------2----------------0------------------------|


     D                 F#m              Em              A
e|----2--------------------------------------------------5-----|
B|------3----------------2---------------0-----------------2---|
G|--------2h0--0-----------2-----2---------0----0------------2-| 
D|-0--------------------------4---------------2----------------|
A|----------------------------------------------------0--------|
E|-------------------2----------------0------------------------|


chords:

     D            F#m           Em      A
If I find him, I'm fine just to follow
         D          F#m           Em      A
Would he hold me and never let me go
         D            F#m             Em      A
Would he let me borrow his old winter coat
         D     F#m      Em           A  
I don't know,   I       don't know


If I see her standing there alone
At the train station three stops from her home
I have half a mind to say what I'm thinking anyway
I don't know, I don't know

There's airplane in the sky
With a banner right behind
Loneliness is just a crime
Look each other in the eye
And say hello
Oh oh oh oh
And say hello
Oh oh oh oh oh
            
Hard to play? Try these video lessons and learn fast. | Correct




comments powered by Disqus
↑ Back to top | Tablatures and chords are parodies/interpretations of the original songs. You may use it for private study, scholarship, research or language learning purposes only