>
 >
What Became Of Me

What Became Of Me Guitar Tabs

Roses Are Red - What Became Of Me chords, tabs, tablatures, lyrics

Guitar lessons | Add/correct | Request | Top 50 tabs Artists:  A B C D E F G H I J K L M N O P Q R S T U V W X Y Z 0-9

What Became Of Me Guitar Tabs – Roses Are Red

CD, Sheet music, Poster

Do you like What Became Of Me? Share with your friends now
Tabs
-------------------------------------------------------------------------------
                    What Became of Me - Roses Are Read
-------------------------------------------------------------------------------

update:fixed some notes on the bridge and added explanations on some parts of the song

Its not complete or perfect but no one else tabbed it, so i gave it a shot, as soon as i figure
out the rest ill update, comments and criticism welcome.

Tuning:Drop D 1/2 Step Down

Intro/Chorus 2x
eb|----------------------------------------------------------------------------------|
Bb|----------------------------------------------------------------------------------|
Gb|-11-11---11-11-----7--7-7-7---14-14----9-9-9-9\7-7----11-11-14-14--7-7-7-7-7-7-7--|
Db|-x--x----x--x------x--x-x-x---x--x-----x-x-x-x\x-x----x--x--x--x---x-x-x-x-x-x-x--|
Ab|-9--9----9--9------5--5-5-5---12-12----7-7-7-7\5-5----9--9--12-12--5-5-5-5-5-5-5--|
Db|----------------------------------------------------------------------------------|

Verse 2x
eb|----------------------------------------------------------------------------------|
Bb|----------------------------------------------------------------------------------|
Gb|----------------------------------------------------------------------------------|
Db|--9-9-9-9--0-0-0-0----5-5-5-5--0-0-0-0----9-9-9-9--0-0-0-0----5-5-5-5--0-0-0-0----|
Ab|--9-9-9-9--0-0-0-0----5-5-5-5--0-0-0-0----9-9-9-9--0-0-0-0----5-5-5-5--0-0-0-0----|
Db|--9-9-9-9--0-0-0-0----5-5-5-5--0-0-0-0----9-9-9-9--0-0-0-0----5-5-5-5--0-0-0-0----|
  PM........  .......    .......  .......    .......  .......    .......  .......

Chorus 2x

after 2nd chorus it sounds like bass playing theres some guitar in the back but i still 
figure it out yet, then this verse comes in around 1:22
Verse 2
eb|---------------0--------------0---------------------|
Bb|---7---------------7--------------------------------|
Gb|-----7------7--------7------7-----9h11--6h7--2h4----|
Db|-------7--5------------7--5-------------------------|
Ab|----------------------------------------------------|
Db|----------------------------------------------------|

Chorus 2x

Bridge
eb|------------------------------------------------------------------------|
Bb|------------------------------------------------------------------------|
Gb|------------------------------------------------------------------------|2x
Db|------14-12------14-12------14-12------14-12------14-12------14-12------|
Ab|----0----------0----------0----------0----------0----------0------------|
Db|-12---------12---------11---------11----------0----------0--------------|


eb|--------------------------------------------------------------------------------------|
Bb|--------------------------------------------------------------------------------------|
Gb|--------------------------------------------------------------------------------------|
Db|------14-12------14-12------14-12------14-12------14-12------14-12------14-12------14-|
Ab|----0----------0----------0----------0----------0----------0----------0----------0----|
Db|-12---------12---------11---------11----------0----------0----------0----------0------|


this is to give u an idea of how this part goes, listen to song for strumming pattern 
2x
eb|---------------------------------------------------------------------------|
Bb|---------------------------------------------------------------------------|
Gb|--11-11-11-11--14-14-14--12-12--11---9-9-9-9--12-12-12--11-11--9-----------|
Db|--x--x--x--x---x--x--x---x--x---x----x-x-x-x--x--x--x---x--x---x-----------|
Ab|--9--9--9--9---12-12-12--10-10--9----7-7-7-7--10-10-10--9--9---7-----------|
Eb|---------------------------------------------------------------------------|

eb|---------------------------------------------------------------------------|
Bb|---------------------------------------------------------------------------|
Gb|--7-7-7-7-7-7-7--14-14-14-14-14-14-14--7-----------------------------------|
Db|--x-x-x-x-x-x-x--x--x--x--x--x--x--x---x-----------------------------------|
Ab|--5-5-5-5-5-5-5--12-12-12-12-12-12-12--5-----------------------------------|
Db|---------------------------------------------------------------------------|

eb|---------------------------------------------------------------------------|
Bb|---------------------------------------------------------------------------|
Gb|--11-11-11-11--14-14-14--12-12--11---9-9-9-9--12-12-12--11-11--9-----------|
Db|--x--x--x--x---x--x--x---x--x---x----x-x-x-x--x--x--x---x--x---x-----------|
Ab|--9--9--9--9---12-12-12--10-10--9----7-7-7-7--10-10-10--9--9---7-----------|
Eb|---------------------------------------------------------------------------|

eb|---------------------------------------------------------------------------|
Bb|---------------------------------------------------------------------------|
Gb|--7-7-7-7-7-7---9-9-9-9--11-11-11-11--12-12-12-12--14-14-14--7-------------|
Db|--x-x-x-x-x-x---x-x-x-x--x--x--x--x---x--x--x--x---x--x--x---x-------------|
Ab|--5-5-5-5-5-5---7-7-7-7--9--9--9--9---10-10-10-10--12-12-12--5-------------|
Db|---------------------------------------------------------------------------|

2nd time end on this
eb|----------------------------------------------------------------------------|
Bb|----------------------------------------------------------------------------|
Gb|--7-7-7-7---9-9-9-9--11-11-11---12-12-12---14-14-14--16-16--18-18--191919---|
Db|--x-x-x-x---x-x-x-x--x--x--x----x--x--x----x--x--x---x--x---x--x---x-x-x----|
Ab|--5-5-5-5---7-7-7-7--9--9--9----10-10-10---12-12-12--14-14--16-16--171717---|
Db|----------------------------------------------------------------------------|

Outro
eb|---------------0--------------0--------------0--|
Bb|---7---------------7-------------7--------------|
Gb|-----7------7--------7------7------7------7-----|
Db|-------7--5------------7--5----------7--5-------|
Ab|------------------------------------------------|
Db|------------------------------------------------|


| /  slide up
| \  slide down
| h  hammer-on
| p  pull-off
| ~  vibrato
| +  harmonic
| x  Mute note
===============================================================================





Comments


Popular Roses Are Red tabs & chords
White And Gold Bass Tabs
300 Motion Pictures Tabs
Last Christmas Tabs
Last Christmas 1 Tabs
White And Gold Tabs


Song lyrics



↑ Back to top | Tablatures and chords are parodies/interpretations of the original songs. You may use it for private study, scholarship, research or language learning purposes only
© 2014 AZChords.com Contact us | Privacy policy | DMCA | Add/correct tabs | Request tabs | Top 50 tabs