» » »

Rose Royce, I Want To Get Next To You Tabs (ver.1)

Artists:  A B C D E F G H I J K L M N O P Q R S T U V W X Y Z # 

I Want To Get Next To You Tabs (ver.1)

Rose Royce Tabs
Rating:
5/5 (1 vote)
I Want To Get Next To You lessons Tabs too difficult? Try these video lessons and learn fast
                Rose Royce
                      F  
E-|-------------------1---1---1-1---1---1---1-1---1--------|
B-|-------------------1---1---1-1---1---1---1-1---1--------|
G-|-------------------2---2---2-2---2---2---2-2---2--------|
D-|-------0--2--3-----3---3---3-3---3---3---3-3---3--------|
A-|---3----------------------------------------------------|
E-|--------------------------------------------------------|

                       C                         C
E-|-------------------0--0-0-------------------0--0-0--0---|
B-|-------------------1--1-1-------------------1--1-1--1---|
G-|-------------------0--0-0-------------------0--0-0--0---|
D-|------3--2--0--2---2--2-2---------0---2-----2--2-2--2---|
A-|-------------------3--3-3---0--3---------3--3--3-3--3---|
E-|--------------------------------------------------------|

C 
Sittin' here in this chair waitin' on you
                           F 
Ah baby, to see things my way 

But not a word do you say 
                         C 
You won't even look my way 
G 
Girl, I'm spending my dimes, wasting 
                            F 
My time, talking till I'm black and blue 
                                      C 
Ah, can't you see I wanna get next to you 

C 
Dreams of you and I go sailing by whenever your eyes meet mine (You're so fine) 
                               F 
And girl you make me feel so insecure You're so beautiful and pure, 
                   C
Why must you be unkind (And tell me I'm not your kind, blowin my mind) 
G 
Girl, my, my money is low and I know That I can't take you to the 
                         F  
Fancy places you might wanna go 
                     C
 I wanna get next to you 

 I wanna get next to you 

(Instrumental) C F C

G 
Boy, you can bend me, shake me, make me Whatever it takes to please you

               F
I'm willing to do 'Cause you're my dream come true 
                       C
And I wanna get next to you 
            

comments powered by Disqus
↑ Back to top | Rose Royce Tabs for I Want To Get Next To You. Lyrics for acoustic guitar and electric guitar. Tablatures and chords are parodies/interpretations of the original songs. You may use it for private study, scholarship, research or language learning purposes only