» » »

Roselyn, Screw The Universe Bass tabs (ver.1)

Artists:  A B C D E F G H I J K L M N O P Q R S T U V W X Y Z # 

Screw The Universe Bass tabs (ver.1)

Roselyn Tabs
Rating:
0/5 (0 votes)
Screw The Universe lessons Tabs too difficult? Try these video lessons and learn fast
                Screw the Universe Bass Tab

Tuning: b F# b E G#

(0:00-0:11)
G#------------------------------------------------------------|
E ------------------------------------------------------------|
b ------------------------------------------------------------| (Let the 3rd
F#------------------------------------------------------------|  0 ring out)
b -0---------------0---------------0------------0-0-0---------|

(0:12-0:31)
G#-------------------------------------------------------------------------|
E -------------------------------------------------------------------------|
b -------------------------------------------------------------------------|
F#---------3-5-3-----------------------------------------3-5-3-------------|
b -0-1-4-3-------4-3-0-1-3-4--0-1-4-3-4-444-1111-0-1-4-3-------4-3-0-1-3-4-|

G#--------------------------|
E --------------------------|
b --------------------------|   (Play this whole part 2x)
F#--------------------------|
b -0-1-4-3-1-111-4444-------|

(0:32-0:42)
G#-----------------------------------------------------------------|
E -----------------------------------------------------------------|
b -----------------------------------------------------------------|  (2x)
F#-3-3-3-3---------------------------------3-3-3-3---------6-6-6-6-|
b ---------4-4-4-4-1-1-1-1-1-1-1-1-1-1-1-1---------4-4-4-4---------|

(0:42-1:02)
G#--------------------------------------------------------------------------|
E --------------------------------------------------------------------------|
b --------------------------------------------------------------------------|
F#-3-3-333---------------------3-3----6--3-3-333----------------------------|
b ---------4--444-1111-1-1-111-----44------------4--444-1111100-100-100-100-|

G#---------|
E ---------|
b ---------|             (Play this whole part 2x)
F#---------|
b -000-000-|

(1:03-1:09)
G#-------------------------------------------------------|
E -------------------------------------------------------|
b -------------------------------------------------------|
F#-------------------------------------------------------|
b -100-100-100-100-014-100-100-100-100-000-000-100-100-1-|

(1:10-1:20)
G#---------------------------------------------|
E ---------------------------------------------|
b ---------------------------------------------|   (2x)
F#---------------------------------------------|
b -00--------------000-000-100-100-100-100-014-|

(1:20-1:22)
G#-----------|
E -----------|
b -----------|
F#-----------|
b -1---1---1-|
            

comments powered by Disqus
↑ Back to top | Roselyn Bass for Screw The Universe. Lyrics for acoustic guitar and electric guitar. Tablatures and chords are parodies/interpretations of the original songs. You may use it for private study, scholarship, research or language learning purposes only