>
 >
Real Talk

Real Talk Bass Tabs

Roselyn - Real Talk chords, tabs, tablatures, lyrics

Guitar lessons | Add/correct | Request | Top 50 tabs Artists:  A B C D E F G H I J K L M N O P Q R S T U V W X Y Z 0-9

Real Talk Bass Tabs – Roselyn

CD, Sheet music, Poster

Do you like Real Talk? Share with your friends now
Bass Tabs
Real Talk Bass Tab

Tuning: b F# b E G#

(0:02-0:04)
G#-------------|
E -------------|
b -------------|
F#-------------|
b -0---0---0---|

(0:05-0:25)
G#----------------------------------------------------------------|
E ----------------------------------------------------------------|
b ----------------------------------------------------------------|
F#-----------------3(16x)-----------------------------------------|
b -0(16x)--8(16x)----------5(16x)--0(16x)--8(16x)--3(16x)--5(16x)-|

(0:25)
G#---
E ---
b ---  (Sustain)
F#---
b -0-

(0:36-0:46)
G#--------------------------------|
E --------------------------------|
b --------------------------------|
F#--------------------------------|
b -0(16x)--8(16x)--3(16x)--5(16x)-|

(0:46-0:55)
G#--------------------|
E --------------------|
b --------------------|  (2x)
F#--------------------|
b -0-0-------0--0-0-0-|

(0:55-0:56)
G#-----------|
E -----------|
b -----------| (Slide from 3 up to 8)
F#-----------|
b -3/--8-----|

(0:56-1:17)
G#-------------------------------------------------------------------|
E -------------------------------------------------------------------|
b -------------------------------------------------------------------|
F#-------------------------------------------------------------------|
b -8--8-8-8-8-8-8-8888--8-8-8-8-8-8-8880--0-0-0-0----0-0-0-0-0-0-0-0-|

  --------------------------|
  --------------------------|
  --------------------------|  (Play this whole part 2x)
  --------------------------|
  -0-0-0-0----3-3-3-3-3-3-3-|

(1:17)
G#---
E ---
b ---  (Sustain)
F#---
b -8-

(1:22-1:43)
G#----------------------------------------------------------------|
E ----------------------------------------------------------------|
b ----------------------------------------------------------------|
F#-----------------3(16x)-----------------------------------------|
b -0(16x)--8(16x)----------5(16x)--0(16x)--8(16x)--3(16x)--5(16x)-|

(1:43-2:02)
G#--------------------|
E --------------------|
b --------------------|  (4x)
F#--------------------|
b -0-0-------0--0-0-0-|

(2:03-2:04)
G#-----------|
E -----------|
b -----------|  (Slide from 3 up to 8)
F#-----------|
b -3/--8-----|

(2:04-2:25)
G#-------------------------------------------------------------------|
E -------------------------------------------------------------------|
b -------------------------------------------------------------------|
F#-------------------------------------------------------------------|
b -8--8-8-8-8-8-8-8888--8-8-8-8-8-8-8880--0-0-0-0----0-0-0-0-0-0-0-0-|

  --------------------------|
  --------------------------|
  --------------------------|  (Play this whole part 2x)
  --------------------------|
  -0-0-0-0----3-3-3-3-3-3-3-|

(2:25-2:38)
G#-------------------------------------------|
E -------------------------------------------|
b -------------------------------------------|
F#-------------------------------------------|
b -0----------0--0-0-------0-0-0-0-0-0-0-0-0-|

(2:40-2:54)
G#--------------------------------------------------------|
E --------------------------------------------------------|
b --------------------------------------------------------|  (2x)
F#-------------------------3-5------------------3-5-------|
b -0---0-0-0-0-0-0-0-0-0-0------0---0-0-0-0-0-0------3--5-|

(2:54-3:09)
G#----------------------------------------------------------|
E ----------------------------------------------------------|
b ----------------------------------------------------------|  (2x)
F#--------------------------3-4-------------------3-5-------|
b -0--0-000-000-000-000-000------0--0-000-000-000------3--5-|

(3:09-3:31)
G#-----------------------|
E -----------------------|
b -----------------------|  (2x)
F#-----------------------|
b -8(32x)--0(24x)--3(8x)-|

(3:31-3:36)
G#---------------------------------------|
E ---------------------------------------|
b ---------------------------------------|
F#---------------------------------------|
b -8--8-8-8-8-8-8-8888--8-8-8-8-8-8-8888-|

(3:40-3:54)
G#---------------------------|
E ---------------------------|
b ---------------------------|  (4x)
F#---------------------------|
b -000---000---000---0000000-|

(3:55-4:10)
G#---------------------------|
E ---------------------------|
b ---------------------------| (4x)
F#---------------------------|
b -111---111---111---1111111-|





Comments


Popular Roselyn tabs & chords
Capn Crunch For Lunch Bass Tabs
Poolhall Brawl Bass Tabs
Screw The Universe Bass Tabs
3720 To 1 Tabs
Notdeadspace Tabs
Poolhall Brawl Tabs


Song lyrics



↑ Back to top | Tablatures and chords are parodies/interpretations of the original songs. You may use it for private study, scholarship, research or language learning purposes only
© 2014 AZChords.com Contact us | Privacy policy | DMCA | Add/correct tabs | Request tabs | Top 50 tabs