>
 >
Poolhall Brawl

Poolhall Brawl Bass Tabs

Roselyn - Poolhall Brawl chords, tabs, tablatures, lyrics

Guitar lessons | Add/correct | Request | Top 50 tabs Artists:  A B C D E F G H I J K L M N O P Q R S T U V W X Y Z 0-9

Poolhall Brawl Bass Tabs – Roselyn

CD, Sheet music, Poster

Do you like Poolhall Brawl? Share with your friends now
Bass TabsTabs
Poolhall Brawl Demo

Tuning: b F# b E G#

(0:07-0:13)
G#-----------|
E -----------|
b -----------| (4x)
F#-----------|
b -3---3---3-|

(0:13-0:20)
G#-------------------------------------------------|
E -------------------------------------------------|
b -------------------------------------------------| (Let 0 Ring Out)
F#-------------------------------------------------|
b -3---3---3--3---3---1----3---3---3--3---3---3--0-|

(0:23-0:27)
G#-------------------------------------------------|
E -------------------------------------------------|
b -------------------------------------------------| (Let 1 Ring out)
F#-------------------------------------------------|
b -1---------------------------------------------0-|

(0:31)
G#---
E ---
b --- (Let Ring Out)
F#---
b -0-

(0:36-0:58)
G#--------------------------------------------------------------------------|
E --------------------------------------------------------------------------|
b --------------------------------------------------------------------------|
F#-----3-5-------6-5-----------3-5------------------3-5--------6-5----------|
b -0-0----0-6-5-0-----3-5-3-0------0-6-5-3-5-03--0-0----0-6-5-0-----3-5-3-0-|

G#-----------|
E -----------|
b -----------| (Play this whole part 2x. Let the final 5 Ring Out)
F#-3-5-------|
b -----0-6-5-|

(0:59-1:12)
G#-------------------------------------------------------------------------|
E -------------------------------------------------------------------------|
b -------------------------------------------------------------------------|
F#----------------6-5------------------------------------------------------|
b -0--0-0-0-0-0-0------6-6-5-5-0--0-0-0-0-0-0-3-3-3-6-6-5-5-0--0-0-0-0-0-0-|

G#---------------------------------------------|
E ---------------------------------------6---6-|
b ---------------------------------5---5---5---|
F#-6-5---------------------------4---4---------|
b ------6-6-5-5-0--0-0-0-0-0-0-5---------------|

(1:12-1:25)
G#-------------------------------------------------------------------------|
E -------------------------------------------------------------------------|
b -------------------------------------------------------------------------|
F#----------------6-5------------------------------------------------------|
b -0--000-000-000------6-6-5-5-0--0-0-0-0-0-0-3-3-3-3-3-6-5-0--000-000-000-|

G#--------------------------------------|
E --------------------------------------|
b --------------------------------------|(Slide up from 1 and back down from
F#-6-5----------------------------------|        12)
b ------6-6-5-5-0--0-0-0-0-0-0-1/---12\-|

(1:26-1:38)
G#-------------------------|
E -------------------------|
b -------------------------| (Play 2x without sustain, 2x with)
F#-------------------------|
b -0-0----0-0-0----0-0-0-0-|

(1:39-1:40)
G#-------------|
E -------------|
b -------------|
F#-------------|
b -3-3-3-3-3-3-|

(1:40-1:52)
G#------------------------|
E ------------------------|
b ------------------------| (2x)
F#------------------------|
b -7(16x)--3(16x)--5(16x)-|

(1:53-2:19)
G#-----------------------------------------------------|
E -----------------------------------------------------|
b -----------------------------------------------------|
F#-----------------------------------------------------|
b -7--7--7-7---333--3--3-3---222--2--2-2---000--0--0-0-|

G#----------------------|
E ----------------------|                       (Play this whole part 2x)
b ----------------------|
F#----------------------|
b -7(8x)--3(8x)--5(16x)-|

(2:23-2:25)
G#-----------------|
E -----------------|
b -----------------|
F#-----------------|
b -0-3-2-0-5-3-2-3-|

(2:27-2:40)
G#-----------------|
E -----------------|
b -----------------| (8x)
F#-----------------|
b -0-3-2-0-5-3-2-3-|

(2:40)
G#-------|
E -------|
b -------|
F#-------|
b -3---2-|

(2:40-2:54)
G#-------------------------------------------------------------------------|
E -------------------------------------------------------------------------|
b -------------------------------------------------------------------------|
F#-------------------------------------------------------------------------|
b -0---0--------------------0---0------0-4--3--1--0---0------3-2-0-5-3-2-3-|

G#----------------------|
E ----------------------|
b ----------------------|
F#----------------------|
b -0---0------0-4--3--1-|

(2:54-3:10)
G#-------|
E -------|
b -------|
F#-------|
b -0---0-|





Comments


Popular Roselyn tabs & chords
Capn Crunch For Lunch Bass Tabs
Real Talk Bass Tabs
Screw The Universe Bass Tabs
3720 To 1 Tabs
Notdeadspace Tabs
Poolhall Brawl Tabs


Song lyrics



↑ Back to top | Tablatures and chords are parodies/interpretations of the original songs. You may use it for private study, scholarship, research or language learning purposes only
© 2014 AZChords.com Contact us | Privacy policy | DMCA | Add/correct tabs | Request tabs | Top 50 tabs