>
 >
Poolhall Brawl

Poolhall Brawl Guitar Tabs

Roselyn - Poolhall Brawl chords, tabs, tablatures, lyrics

Guitar lessons | Add/correct | Request | Top 50 tabs Artists:  A B C D E F G H I J K L M N O P Q R S T U V W X Y Z 0-9

Poolhall Brawl Guitar Tabs – Roselyn

CD, Sheet music, Poster

Do you like Poolhall Brawl? Share with your friends now
Bass TabsTabs
|------------------------------------------------|
|---4---4--4----4---4--4----4---4--4----4---4--4-|
|---4---4--4----4---4--4----4---4--4----4---4--4-|
|-3-4-3-4-34-3-4-3-4-34--3-4-3-4-34--3-4-3-4--4-|
|-3---3---3---3---3---3---3---3---3---3---3------|
|-3---3---3---3---3---3---3---3---3---3---3------|

|--------------------------------------------------|
|---4---4--4----4---4--------4---4---4---4---4---4-|
|---4---4--4----4---4--------4---4---4---4---4---4-|
|-3-4-3-4-34--3-4-3-4-0----3-4-3-4-3-4-3-4-3-4-3-4-|
|-3---3---3---3---3---0----3---3---3---3---3---3---|
|-3---3---3---3---3---1----3---3---3---3---3---3---|

|-0--------------------------------------------------|
|-0--------------------------------------------------|
|-0--------------------------------------------------|
|-0------------------------0-------------------------|
|-0------------------------0-------------------------|
|-0------------------------1-------------------------|

Guitar 1 (played very messy)
|----------------------------------------|
|----------------------------------------|
|----------------------------------------|
|-0-5-7-6-5-0-8-7--3-5-3-0-5-7-6-5-3-5---|
|-0-3-5-6-5-0-6-5--3-5-3-0-3-5-6-5-3-5-*-|
|-0-----6-5-0------3-5-3-0-----6-5-3-5-3-|

|--------------------------------------------|
|-----------------------------------<5>------|
|-----------------------------------<5>------|
|-0-5-7-6-5---8-7-3-5-3-0-5-7-6-5---<5>------|
|-0-3-5-6-5---6-5-3-5-3-0-3-5-6-5------------|
|-0-----6-5-0-----3-5-3-0-----6-5------------|

Guitar 2
|--------------------------------------------|
|--------------------------------------------|
|--------------------------------------------|
|-0------------------------------------------|
|-0------------------------------------------|
|-0------------------(pickslide)-------------|

Guitar 1, 2
|----------------------------------------|
|----------------------------------------|
|----------------------------------------|
|-0-5-7-6-5-0-8-7--3-5-3-0-5-7-6-5-3-5-3-|
|-0-3-5-6-5-0-6-5--3-5-3-0-3-5-6-5-3-5-3-|
|-0-----6-5-0------3-5-3-0-----6-5-3-5-3-|


|--------------------------------------------|
|--------------------------------------------|
|--------------------------------------------|
|-0-5-7-6-5---8-7-3-5-3-0-5-7-6-5------------|
|-0-3-5-6-5---6-5-3-5-3-0-3-5-6-5----------*-|
|-0-----6-5-0-----3-5-3-0-----6-5----------3-|

|----------------------------------------|
|----------------------------------------|
|----------------------------------------|
|-0-5-7-6-5-0-8-7--3-5-3-0-5-7-6-5-3-5-3-|
|-0-3-5-6-5-0-6-5--3-5-3-0-3-5-6-5-3-5-3-|
|-0-----6-5-0------3-5-3-0-----6-5-3-5-3-|

|-------------------------------------|
|-------------------------------------|
|-------------------------------------|
|-0-5-7-6-5---8-7-3-5-3-0-5-7-6-5-----|
|-0-3-5-6-5---6-5-3-5-3-0-3-5-6-5-----|
|-0-----6-5-0-----3-5-3-0-----6-5-----|

|--------------------------------------------------------------|
|--------------------------------------------------------------|
|--------------------------------------------------------------|
|-0-000000-8-7-6655-0-0000003336655-0-000000-8-7-6655-0-000000-|
|-0-000000-6-5-6655-0-0000003336655-0-000000-6-5-6655-0-000000-|
|-0-000000-----6655-0-0000003336655 0-000000-----6655-0-000000-|

|--------------------------|
|--------------------------|
|----------------6h9---6h9-|
|-------5h8---5h8---5h8----|
|----4h7---4h7-------------|
|-5h8----------------------|

|---------------------------------------------------------------|
|---------------------------------------------------------------|
|---------------------------------------------------------------|
|-0-000-000-000-8-7-6655-0-0000000333365-0-000-000-000-8-7-6655-|
|-0-000-000-000-6-5-6655-0-0000000333365-0-000-000-000-6-5-6655-|
|-0-000-000-000-----6655-0-0000000333365-0-000-000-000-----6655-|

|------------------------------------|
|------------------------------------|
|-------------------------------6699-|
|-0-0000000000000000--------5588-----|
|-0-0000000000000000----4477---------|
|-0-00000000000000005588-------------|

|-----------------|--|-----------------------|
|-----------------|--|-----------------------|
|-----------------|--|-----------------------|
|-0-0-000-0-0-0-0-|x3|-0-0-000-7-7-7-7-7-7-7-|
|-0-0-000-0-0-0-0-|--|-0-0-000-3-3-3-3-5-5-5-|
|-0-0-000-0-0-0-0-|--|-0-0-000-3-3-3-3-5-5-5-|

|----------------------------------------------------|
|----------------------------------------------------|
|----------------------------------------------------|
|-10101010101010101010101010101010-777777777-7777777-| x2
|-7-7-7-7-7-7-7-7-7-7-7-7-7-7-7-7--333333333-5555555-|
|-7-7-7-7-7-7-7-7-7-7-7-7-7-7-7-7--333333333-5555555-|

Guitar 1
|--------------------------------------------|
|--------------------------------------------|
|--------------------------------------------|
|-10101010-10107-7-7-7-775-5-5-5-553-3-3-3-2-|
|-7-7-7-7--7-7-3-3-3-3-332-2-2-2-220-0-0-0-0-|
|-7-7-7-7--7-7-3-3-3-3-332-2-2-2-220-0-0-0-0-|
  . . .    . . . . .   ... . .   ... . . .

|--------------------------------------------|
|--------------------------------------------|
|--------------------------------------------|
|-1010101010101010-77777777-7777777777777777-|
|-7-7-7-7-7-7-7-7--55555555-5555555555555555-|
|-7-7-7-7-7-7-7-7--33333333-5555555555555555-|

Guitar 2
|--------------------------------------------------|
|--------------------------------------------------|
|-101010101010-5-5-5-5-5-5-7-7-7-7-7-7-5-5-5-4-4-4-|
|--------------------------------------------------|
|-8-8-8-8-8-8--3-3-3-3-3-3-5-5-5-5-5-5-3-3-3-2-2-2-|
|--------------------------------------------------|

|--------------------------------------------------|
|--------------------------------------------------|
|-101010101010-5-5-5-5-5-5-7-7-7-7-7-7-7-7-7-7-7-7-|
|--------------------------------------------------|
|-8-8-8-8-8-8--3-3-3-3-3-3-5-5-5-5-5-5-5-5-5-5-5-5-|
|--------------------------------------------------|

Guitar Solo
|--------------------------------------------|      |
|--------------------------------------------|      |
|--------------------------------------------|      |
|-10101010-10107-7-7-7-775-5-5-5-553-3-3-3-2-|      |
|-7-7-7-7--7-7-3-3-3-3-332-2-2-2-220-0-0-0-0-|      |
|-7-7-7-7--7-7-3-3-3-3-332-2-2-2-220-0-0-0-0-|      | 
  . . .    . . . . .   ... . .   ... . . .          |
                                                     | x 2
|--------------------------------------------|      |
|--------------------------------------------|      |
|--------------------------------------------|      |
|-1010101010101010-77777777-7777777777777777-|      | 
|-7-7-7-7-7-7-7-7--55555555-5555555555555555-|      |
|-7-7-7-7-7-7-7-7--33333333-5555555555555555-|      |

|-----------------|
|-----------------|
|-----------------|
|-0-3-2-0-5-0-2-3-| x2 (first time guitar 1, second time guitar 2)
|-0-3-2-0-5-0-2-3-|
|-0-3-2-0-5-0-2-3-|

|--------------------------------------------|
|--------------------------------------------|
|--------------------------------------------|
|-0-0-00000-0-0000-0-0-0-0-0-0-0-0-0----0000-| x4
|-0-0-00000-0-0000-0-0-0-0-0-0-0-0-0----0000-|
|-1-1-11111-1-1111-1-1-1-1-1-1-1-1-0-4b-0000-|





Comments


Popular Roselyn tabs & chords
Capn Crunch For Lunch Bass Tabs
Poolhall Brawl Bass Tabs
Real Talk Bass Tabs
Screw The Universe Bass Tabs
3720 To 1 Tabs
Notdeadspace Tabs


Song lyrics



↑ Back to top | Tablatures and chords are parodies/interpretations of the original songs. You may use it for private study, scholarship, research or language learning purposes only
© 2014 AZChords.com Contact us | Privacy policy | DMCA | Add/correct tabs | Request tabs | Top 50 tabs