» » »

Roselyn, Capn Crunch For Lunch Bass tabs (ver.1)

Artists:  A B C D E F G H I J K L M N O P Q R S T U V W X Y Z # 

Capn Crunch For Lunch Bass tabs (ver.1)

Roselyn Tabs
 Rating:
4/5 (4 votes)
Capn Crunch For Lunch lessons Tabs too difficult? Try these video lessons and learn fast
                Cap'n Crunch For Lunch Bass Tab

Tuning: b F# b E G#

(0:05-0:14)
G#---------------------------------|
E ---------------------------------|
b ---------------------------------|  (Sustain)
F#---------------------------------|
b -0---------------0---------------|

(0:15-0:33)
G#---------------------------------------------|
E ---------------------------------------------|
b ---------------------------------------------| (4x total. Sustain last 2x)
F#---------------------------------------------|
b -0-0-------0-0--0-0--0-0-------0-0-0-0--0--0-|

(0:34-0:43)
G#---------------------------------------------------------------------|
E ---------------------------------------------------------------------|
b -----8---7---5--------------------------8---7---5--------------------|
F#-----------------7h10---7h10---7h10-----------------7h10---8p7-------|
b -0-0---0---0---0------0------0------0-0---0---0---0------0-----0-5h8-|

  ---------------------------------------------------------------------|
  ---------------------------------------------------------------------|
  -----8---7---5--------------------------8---7---5--------------------|
  -----------------7h10---7h10---7h10-----------------7h10-8p7-5h8-7h8-|
  -0-0---0---0---0------0------0------0-0---0---0---0------------------|

(0:44-0:52)
G#---------------------------------------------|
E ---------------------------------------------|
b ---------------------------------------------| (2x. Sustain all.)
F#---------------------------------------------|
b -0-0-------0-0--0-0--0-0-------0-0-0-0--0--0-|

(0:53-1:04)
G#----------------------------|
E ----------------------------|
b ----------------------------| (4x. Sustain last 2x)
F#----------------------------|
b -00000--00000----0--0-00000-|

(1:04)
G#---
E ---
b ---  (Sustain)
F#---
b -3-

(1:05-1:26)
G#-------------------------|
E -------------------------|
b -------------------------|  (2x)
F#-------------------------|
b -8(32x)--3(16x)--0(16x)--|

(1:27-1:46)
G#----------------------------------------------------------------|
E ----------------------------------------------------------------|
b ----------------------------------------------------------------|
F#----------------------------------------------------------------|
b -0-0--0-0--0-0--0-0----0-0--0-0--0-0--0-0----5-5--5-5--5-5--5-5-|

  --------------------|
  --------------------|    (Play this whole part 2x)
  --------------------|
  --------------------|
  -5-5--5-5--5-5--5-5-|

(1:47)
G#---
E ---
b ---  (Sustain)
F#---
b -8-

(1:51-2:05)
G#-------------------------|
E -------------------------|
b -------------------------|  (4x)
F#-------------------------|
b -0--0-0--0-0-0--0-0--0-0-|

(2:15-2:42)
G#---------------------------------------|
E ---------------------------------------|
b ---------------------------------------| (4x. Sustain 3rd time)
F#---------------------------------------|
b -0-0-0-------000-0-0-0-0-------111-111-|

(2:43)
G#---
E ---
b ---  (Sustain)
F#---
b -0-

(2:52-2:54)
G#--------|
E --------|
b --------|
F#--------|
b -7(16x)-

(2:55-3:16)
G#-------------------------|
E -------------------------|
b -------------------------|  (2x)
F#-------------------------|
b -8(32x)--3(16x)--0(16x)--|

(3:17-3:26)
G#---------------------------------|
E ---------------------------------|
b ---------------------------------|  (Sustain)
F#---------------------------------|
b -0---------------0---------------|

(3:27-3:38)
G#---------------------------------------------|
E ---------------------------------------------|
b ---------------------------------------------| (2x)
F#---------------------------------------------|
b -0-0-------0-0--0-0--0-0-------0-0-0-0--0--0-|

(3:39-4:01)
G#---------------------------------------------|
E ---------------------------------------------|
b ---------------------------------------------|  (4x)
F#---------------------------------------------|
b -0-0-------0-0--3-3--3-3-------8-8-8-8--8--8-|
            
Submit corrections

comments powered by Disqus
↑ Back to top | Roselyn Bass for Capn Crunch For Lunch. Lyrics for acoustic guitar and electric guitar. Tablatures and chords are parodies/interpretations of the original songs. You may use it for private study, scholarship, research or language learning purposes only