>
 >
Do You Wanna Get High

Do You Wanna Get High Guitar Tabs

Rose Hill Drive - Do You Wanna Get High chords, tabs, tablatures, lyrics

Guitar lessons | Add/correct | Request | Top 50 tabs Artists:  A B C D E F G H I J K L M N O P Q R S T U V W X Y Z 0-9

Do You Wanna Get High Guitar Tabs – Rose Hill Drive

CD, Sheet music, Poster

Do you like Do You Wanna Get High? Share with your friends now
Tabs
Rose Hill Drive
Do You Wanna Get High?                              


Intro/Verses

      E  E  E  E  E  E  E  E      E  E  E  E   E  E  E  E   
E||----------------------------|---------------------------|
B||---------------------x------|--------x--x---------------|
G||*--2-----2-----2-----x--2---|-----2--x--2------2--2-----|
D||*--2--2--2-----2-----x--2---|-----2-----2------2--2-----|
A||---3--4-----------------3h--|--4--------3h--4-----0-----|
E||----------------------------|---------------------------|


  E  E  E  E  E  E  E  E      E  E  E  E   E  E  E  E   
---------------------------|---------------------------|
--------------------x------|--------x--x---------------|
--2-----2-----2-----x--2---|-----2--x--2------2--2-----|
--2--2--2-----2-----x--2---|-----2-----2------2--2-----|
--3--4-----------------3h--|--4--------3h--4-----0-----|
---------------------------|---------------------------|


  E  E  E  E  E  E  E  E      E  E  E  E   E  E  E  E   
---------------------------|---------------------------|
--------------------x------|--------x--x---------------|
--2-----2-----2-----x--2---|-----2--x--2------2--2-----|
--2--2--2-----2-----x--2---|-----2-----2------2--2-----|
--3--4-----------------3h--|--4--------3h--4-----0-----|
---------------------------|---------------------------|


  E   E  E  E  E  E  E  E      E  E  E  E   E  E   E   E   3x
---------3-----3------------|------------------------------||
---------3--x--3--x--x------|-----3--x---------3-------x---||
--x------0--x--0--x--x------|-----0--x---------0--(0)--x--*||
--x------0-----0--x--x------|-----0---------0--0--(0)--x--*||
--2h--2-----------------0h--|--2--------0---2--------------||
--0h--3-----------------0h--|--3--------0h--3--------------||


  E  E  E  E  E  E  E  E      E  E  E  E   E  E  E  E   
---------------------------|---------------------------|
--------------------x------|--------x--x---------------|
--2-----2-----2-----x--2---|-----2--x--2------2--2-----|
--2--2--2-----2-----x--2---|-----2-----2------2--2-----|
--3--4-----------------3h--|--4--------3h--4-----0-----|
---------------------------|---------------------------|


  E  E  E  E  E  E  E  E      E  E  E  E   E  E  E  E   
---------------------------|---------------------------|
--------------------x------|--------x--x---------------|
--2-----2-----2-----x--2---|-----2--x--2------2--2-----|
--2--2--2-----2-----x--2---|-----2-----2------2--2-----|
--3--4-----------------3h--|--4--------3h--4-----0-----|
---------------------------|---------------------------|


  E  E  E  E  E  E  E  E      E  E  E  E   E  E  E  E   
---------------------------|---------------------------|
--------------------x------|--------x--x---------------|
--2-----2-----2-----x--2---|-----2--x--2------2--2-----|
--2--2--2-----2-----x--2---|-----2-----2------2--2-----|
--3--4-----------------3h--|--4--------3h--4-----0-----|
---------------------------|---------------------------|


Chorus w/ heavy fuzz
    E  E  E   E   E  E  Q        E  E  E   E   E   E  Q      
|-----------------------------|-----------------------------|
|-----------------9--8--7~----|-----------------------------|
|*----------------------------|----------------7--10--9~----|
|*--7--7--7-------------------|--7--7--7--------------------|
|---x--x--x-------------------|--x--x--x--------------------|
|---5--5--5--(5)--------------|--5--5--5--(5)---------------|


  W                    W                  3x   W                   
--------------------|---------------------||----------------------|
--5-----------------|--7------------------||---8------------------|
--7b(9)-------------|--9b(11)------------*||--10b(12)~------------|
--------------------|--------------------*||----------------------|
--------------------|---------------------||----------------------|
--------------------|---------------------||----------------------|


   W                   
----------------------|
--10------------------|
--12b(14)~------------|
----------------------|
----------------------|
----------------------|

Solos are in A major and minor pentatonics over the rhythm section, still working on it





Comments


Popular Rose Hill Drive tabs & chords
Declaration Of Independence Chords
Cool Cody Tabs
Sneak Out Tabs
Sneak Out Intro Tabs
Declaration Of Independence Ukulele


Song lyrics



↑ Back to top | Tablatures and chords are parodies/interpretations of the original songs. You may use it for private study, scholarship, research or language learning purposes only
© 2014 AZChords.com Contact us | Privacy policy | DMCA | Add/correct tabs | Request tabs | Top 50 tabs