» » »

What They Do Tabs (ver.1)

Artists:  A B C D E F G H I J K L M N O P Q R S T U V W X Y Z # 

What They Do Tabs (ver.1)

Roots
Rating:
0/5 (0 votes)

Hard to play? Try these video lessons and learn fast.
                (Intro)
Alright guys and gals this song is an amazing hip hop song with an incredible jazz like 
solo in the intro that I absolutely adore

I'm not 100% positive on this tab seeing as I've had to come back and correct myself 
about 6 times now but this will definitely get you started :]


The Roots (Feat. Raphael Saadiq)
What They Do
Illadelph Halflife
1996

e-||----8-10-11\-/10-/10-/10-----------|
B-||-/11---------/11-/11-/11-----------|
G-||-----------------------------------|
D-||-----------------------------------|
A-||-----------------------------------|
E-||-----------------------------------|

e-||----------------------------------------------|
B-||----------------------------------------------|
G-||-11-11-9P7-------7----------------------------|
D-||-----------9P7-9---9~-9P7---------------------|
A-||--------------------------9P7/5-5H7/9-9-7-7~--|
E-||----------------------------------------------|

e-||-8H10P8-11H13P11-13/15-------------|
B-||-----------------------------------|
G-||-----------------------------------|
D-||-----------------------------------|
A-||-----------------------------------|
E-||-----------------------------------|

This part I'm really not too sure about because
the echo effect is kinda throwing me off
but this is a close start xD

e-||------8H10P8-----------------------|
B-||-9H11--------9H11P9----------------|
G-||--------------------9H11P9/7-------|
D-||-----------------------------9\----|
A-||-----------------------------------|
E-||-----------------------------------|

e-||--------------------10---------------------------10--|
B-||--------------10-12----12-10H12P10------------10-----|
G-||-----7--7/9-7----------------------11-7/9-/11--------|
D-||-7H9--9----------------------------------------------|
A-||-----------------------------------------------------|
E-||-----------------------------------------------------|
            
Hard to play? Try these video lessons and learn fast. | Correct




comments powered by Disqus
↑ Back to top | Tablatures and chords are parodies/interpretations of the original songs. You may use it for private study, scholarship, research or language learning purposes only