>
 >
Seed 20 1

Seed 20 1 Guitar Tabs

Roots - Seed 20 1 chords, tabs, tablatures, lyrics

Guitar lessons | Add/correct | Request | Top 50 tabs Artists:  A B C D E F G H I J K L M N O P Q R S T U V W X Y Z 0-9

Seed 20 1 Guitar Tabs – Roots

CD, Sheet music, Poster

Do you like Seed 20 1? Share with your friends now
Bass TabsChordsChords v2TabsTabs v2Ukulele
The Roots (Cody ChestnuTT & Black Thought) - "The Seed (2.0)" (for one acoustic guitar)
hip-hop jazz reggae rock'n'roll
x=muted h=hammer p=pulloff b=bend -=vocal pause

~Rap 1 [main 2-chord riff, Am/Dm] (Black Thought)~
  Am   Dm Am    Dm  Am
e----55555----55555------|
B----55665----55666------|
G-5--55775-5--55777-5--5-|
D-7--77777-7--77777-5~h7-|
A------------------------|
E------------------------|
Knocked up 9 months ago - And what she finn'a have she don't know
- She want neo-soul, this hip-hop is old, She don't want no rock'n'roll
- She want platinum or ice and gold - She want a whole lot of somethin' to fold
- If you an obstacle she just drop ya' cold, 'cause one monkey don't stop the show,
Little Mary is bad, In these streets, she done ran, E'r since when the heat began,
I told the girl look here, calm down I'm gonna hold your hand, To enable you to keep the plan
'cause you is quick to learn, and we can make money to burn, if you allow me the lay this game
I don't ask for much, but enough room to spread my wings, and the world finn'a know my name

~Rock'N'Roll Verse 1 (Cody Chesnutt)~
[main 2-chord riff, Am/Dm]
I don't aaaaask, for much these daaays, And I don't...
  B                  C7
e-6------------------X-------------|
B-6------------------7-------------|
G-7------------------5-------------|
D-8------------------7-------------|
A-------------------(5)------------|
E----------------------------------|
...bitch, and whine, if I don't get my...
[main 2-chord riff, Am/Dm]
...way - I only wanna
     C            G          Dm
e----7------------3----------5---|
B----5------------3----------6---|
G----5------------4----------7---|
D----5------------5----------7---|
A--------------------------------|
E--------------------------------|
fertilize another behind my lover's back
I sit and watch it grow'r, standin' where I'm at
Fertilize another behind my lover's back
        D7                 Dm7
e--------------------------5-----|
B-------3------------------6-----|
G-------5------------------5-----|
D-------3------------------7-----|
A-------5------------------------|
E--------------------------------|
And I'm keepin' my secrets mine

~Rock'N'Roll Chorus (Cody Chesnutt)~
          Am           G       Dm
e---------5-----------3--------5---|
B---------5-----------3--------6---|
G---------5-----------4--------7---|
D---------7-----------5--------7---|
A----------------------------------|
E----------------------------------|
I push my seed in her bush for life
It's gonna work because I'm pushin' it right

   Fmaj7           Dsus24                     B
e--0---------------5--------------------------6---------------|
B--1---------------5--------------------------6---------------|
G--2---------------7--------------------------7---------------|
D--3---------------5--------------------------8---------------|
A------------------5------------------------------------------|
E-------------------------------------------------------------|
If Mary, dropped my baby girl tonight, I would name her Rock'N'...
[main 2-chord riff, Am/Dm]
...Roll

~Rap 2 [main 2-chord riff, Am/Dm] (Black Thought)~
[main 2-chord riff, Am/Dm]
Uh-huh
Cadillac need space to roam - Where we heading for she don't know
- We in the city where the pros shake rattle and roll, And I'm a gad'dang rollin' stone
- I don't beg I can hold my own - I don't break I can hold the chrome
- And this weighin' a ton, and I'm a son of a gun, my code name is The Only One,
and Black Thought is bad, these streets, he done ran, e'r since when the game began,
I never played the fool, matter'fact I be keepin' it cool, since money been changing hands,
And I'm le't to shine, but the legacy that I leave behind, be the seed that'll keep the flame,
I don't ask for much, but enough room to spread these wings, and the world finn'a know my name

~Rock'N'Roll Verse 2 (Cody Chesnutt)~
I don't beg, for no rich man
And I don't scream, and kick, when his shit don't fall in my hands, man
'cause I know how to still
Fertilize another against my lover's will
I lick the opposition cause she don't take no pill
Ooh-ooh-ooh-ooh-ooh-ooh-no dear
You'll be keeping my legend alive

~Rock'N'Roll Chorus (Cody Chesnutt)~
I push my seed in her bush for life
It's gonna work because I'm pushin' it right
If Mary dropped my baby girl tonight
I would name her Rock'N'...
   E7
e--------0-------------------------------------------------------|
B--0-----3-------------------------------------------------------|
G--1-----1-------------------------------------------------------|
D--0-----0-------------------------------------------------------|
A--2-----2-------------------------------------------------------|
E--0-----0-------------------------------------------------------|
...Roll     Oh ooh break it down, break it down - down the beat
           Ebmaj7/D
   Am7  Dm    E7          Am7 G  Dm  Bb E7
e--5----5---------0-------5------5---6------0----------------------------------------|
B--5----6--8--0---3-------5------6---6--0---3----------------------------------------|
G--5----7--7--1---1-------5---4--7---7--1---1----------------------------------------|
D--5----7--8--0---0-------5---5--7---8--0---0----------------------------------------|
A--7----5-(5)-2---2-------7---5--5---8--2---2----------------------------------------|
E--5----------0---0-------5---3-----(6)-0---0----------------------------------------|

~Rock'N'Roll Chorus (Cody Chesnutt)~
(I push my seed somewhere deep in her chest
I push it naked cause I've taken my test
Deliver it, Mary, it don't matter the sex
I'm gon' name it rock'n'roll)

I push my seed in her bush for life
It's gonna work because I'm pushin it right
If Mary drop' my baby girl, tonight
I would name her Rock'N'Roll

I would name her Rock'N'Roll
I would name her Rock'N'Roll yeah
I would name it Rock'N'Roll





Comments


Popular Roots tabs & chords
Birthday Girl Bass Tabs
The Lesson, Pt. 1 Bass Tabs
What They Do Bass Tabs
Lovely Love My Family Chords
Next Movement Tabs
Seed 2 0 Tabs
The Seed Tabs
Seed 20 Ukulele
The Seed Ukulele
Wake Up Everybody Ukulele


Song lyrics



↑ Back to top | Tablatures and chords are parodies/interpretations of the original songs. You may use it for private study, scholarship, research or language learning purposes only
© 2014 AZChords.com Contact us | Privacy policy | DMCA | Add/correct tabs | Request tabs | Top 50 tabs