» » »

Roots, Birthday Girl Tabs (ver.1)

Artists:  A B C D E F G H I J K L M N O P Q R S T U V W X Y Z # 

Birthday Girl Tabs (ver.1)

Roots Tabs
Rating:
5/5 (1 vote)
Birthday Girl lessons Tabs too difficult? Try these video lessons and learn fast
                -------------------------------------------------------------------------------
                             Birthday Girl – The Roots
-------------------------------------------------------------------------------

Tuning: Standard

Pretty straightforward song but there aren’t any correct versions up! Make sure you play 
chords staccato!

e|-3--2--7--5-|
B|-3--3--7--5-|
G|-4--4--7--5-|
D|-5--4--7--5-|
A|-5--2--5--3-|
E|-3--x--x--x-|
            

comments powered by Disqus
↑ Back to top | Roots Tabs for Birthday Girl. Lyrics for acoustic guitar and electric guitar. Tablatures and chords are parodies/interpretations of the original songs. You may use it for private study, scholarship, research or language learning purposes only