» » »

Seven English Girls Tabs (ver.1)

Artists:  A B C D E F G H I J K L M N O P Q R S T U V W X Y Z # 

Seven English Girls Tabs (ver.1)

Ron Pope
Rating:
5/5 (2 votes)

Tabs too difficult? Try these video lessons and learn fast.
                Capo: 3rd fret
Tuning: Standard


   (F) (C) (G) (Am)     (F) (C) (G)  
e|---------------0----------------------------------|
B|---1---1-----3---3-1-0-----1---1------------------|
G|-2---0---0-0---2---------2---0---0----------------|
D|-3---2-----0---2---------3---2-----0--------------|
A|-3---3-----2---0---------3---3-----2--------------|
E|-1---3-----3-------------1---3-----3--------------|

Verse:

         F              C              G            Am
I drove eleven hundred miles to find a photograph I lost

            F          C                 G                C
It’s just a polaroid I used to keep of a girl that I once loved

    F                 C                  G           Am        
And sleeping leads to nightmares 'cause I never can forget

           F               C              G             C
So now I’m dreaming of Los Angeles as the winter closes in

           F               C              G             C
I said I’m dreaming of Los Angeles as the winter closes in

Solo: (Electric guitar without capo)
            s=slide b=bend r=release h=hammer p=pull
e|-----------------------------------------------------------|
B|----4-----4-------6-6b8r6---------4-----4------------------|
G|--5---5-3---3-5s7---------8-7---5---5-3---3-7h8p7----------|
D|-----------------------------------------------------------|
A|-----------------------------------------------------------|
E|-----------------------------------------------------------|

verse:

           F             C                   G               Am
And we met seven English girls who asked if we’d like to see God

        F              C               G               C
I’m not one for missed adventures so I answered with a smile

   F                  C                 G             Am
We spent the night on razor's edge, all innocence and sin

        F                 C             G             C
Now I’m strung out on the Bowery as the winter closes in

           F                 C             G             C
I said I’m strung out on the Bowery as the winter closes in

Chorus:

            F                C                G              Am
And I won’t cry if you can’t love me like the way it used to feel
           F              C                  G                 C
We had our summer on Long Island now there’s wounds that never heal

           F                C                G              Am
And I won’t cry if you can’t love me like the way it used to feel
           F              C                  G (fade out)                
We had our summer on Long Island now there’s wounds that never heal


Solo:      
            F C G Am - F C G C - F C G Am - F C G (Fade out)
e|----------------------------------------6-------------------------------|
B|----6b8-6b8---8r6------------------4-6b8-8-8r6-8p6----------------------|
G|---3--------------8-8---3s5-3--3h5-----------------8-7-5---5p3-3-3-3----|
D|------------------------------------------------------------------------|
A|------------------------------------------------------------------------|
E|------------------------------------------------------------------------|

e|---------------------13-11-11p10-10-------------------------------------|
B|-----6b8-6b8-6r8-6p4----------------11-11-13-12b13-13-13---13r11p9h11-11|
G|--3---------------------------------------------------------------------|
D|------------------------------------------------------------------------|
A|------------------------------------------------------------------------|
E|------------------------------------------------------------------------|

e|--------15----11--------------------------8--------------------------------|
B|-8-9-11----11----8-8h9p6-8---------8-9-11---11-8---------------------------|
G|---------------------------8-6s8-8---------------8-8-8--8s10-10b12-10b12r10|
D|---------------------------------------------------------------------------|
A|---------------------------------------------------------------------------|
E|---------------------------------------------------------------------------|

Verse:

            F             C            G                Am
I’d paint a picture of my mother but I can’t recall her face

           F              C             G                  C
She’s even far away at midnight and her laughter haunts my dreams

        F                C               G                Am
I ain’t never been this broken, I’ve got nothing left to give

        F             C                G             C       
Now I’m searching for salvation as the winter closes in

           F             C                G             Am
I said I’m searching for salvation as the winter closes in

        F             C                G             C
Man I’m searching for salvation as the winter closes in


            
Chorus:

            F                C                G              Am
And I won’t cry if you can’t love me like the way it used to feel
           F              C                  G                 C
We had our summer on Long Island now there’s wounds that never heal

           F                C                G              Am
And I won’t cry if you can’t love me like the way it used to feel
           F              C                  G (fade out)                
We had our summer on Long Island now there’s wounds that never heal


Ending:

F C G Am - F C G C - F C G Am - F C G (Fade out)

Oh
Oh
Oh
Oh



Oh
Oh
Oh
Oh



No
Oh
Oh
Oh



No



Oh
Oh
Oh
            
Tabs too difficult? Try these video lessons and learn fast.




comments powered by Disqus
↑ Back to top | Tablatures and chords are parodies/interpretations of the original songs. You may use it for private study, scholarship, research or language learning purposes only