» » »

Ronnie Montrose, Rock The Nation Bass tabs (ver.1)

Artists:  A B C D E F G H I J K L M N O P Q R S T U V W X Y Z # 

Rock The Nation Bass tabs (ver.1)

Ronnie Montrose Tabs
 Rating:
4/5 (4 votes)
Rock The Nation lessons Tabs too difficult? Try these video lessons and learn fast
1
                
  Intro: 2x
G--------------|
D--------------|
A----3-5---5-7-|
E--55----77----|

  Verse: 2x then chorus
G--------------|-------------------------|
D--------------|-------------------------|
A----3-5---5-7-|-7----7--7----7-7----5-7-|
E--55----77----|---h57-----h57----h57----|

G--------------|-----------------------------|
D--------------|----------------9-7-5--------|
A----3-5---5-7-|-7----7-7----77-------7777---|
E--55----77----|---h57----h57----h57---------|

 Chorus:
G---------------|--------------|---------------------------|
D---------------|--------------|---------------------------|
A--3-5----------|-3-5----------|----3-5-----------3--------|
E------555-33-5-|-----555-3-00-|-035----555-33-5-5-5-333-0-|

  Verse: 2x then chorus
G--------------|-------------------------|
D--------------|-------------------------|
A----3-5---5-7-|-7----7--7----7-7----5-7-|
E--55----77----|---h57-----h57----h57----|

G--------------|-----------------------------|
D--------------|----------------9-7-5--------|
A----3-5---5-7-|-7----7-7----77-------7777---|
E--55----77----|---h57----h57----h57---------|

 Chorus:
G---------------|--------------|---------------------------|
D---------------|--------------|---------------------------|
A--3-5----------|-3-5----------|----3-5-----------3--------|
E------555-33-5-|-----555-3-00-|-035----555-33-5-5-5-333-0-|


  Bridge:
G-----------------------|----------2---------|
D-----------------------|-----47--2---2------|
A--------77777777777777-|-2-45---4---4-4-----|
E--0-0-0----------------|---------------3-00-|





    3x
G-----------------|----------2---------|
D-----------------|-----47--2---2------|
A--77777777777777-|-2-45---4---4-4-----|
E-----------------|---------------3-00-|

 Lead:
G----------------------------------|
D----------------------------------|
A----------------------------------|
E--000000000000000000000000000000--|

  Verse: 2x then chorus
G--------------|-------------------------|
D--------------|-------------------------|
A----3-5---5-7-|-7----7--7----7-7----5-7-|
E--55----77----|---h57-----h57----h57----|

G--------------|-----------------------------|
D--------------|----------------9-7-5--------|
A----3-5---5-7-|-7----7-7----77-------7777---|
E--55----77----|---h57----h57----h57---------|

 Chorus:
G---------------|--------------|-----------------|
D---------------|--------------|-----------------|
A--3-5----------|-3-5----------|----3-5----------|
E------555-33-5-|-----555-3-00-|-035----555-33-5-|

  Outro:
G----------------------------|
D----------------------------|
A----------------------------|
E--33-5-33-5-33-33-33-33-5---|
            
Submit corrections

comments powered by Disqus
↑ Back to top | Ronnie Montrose Bass for Rock The Nation. Lyrics for acoustic guitar and electric guitar. 1 Tablatures and chords are parodies/interpretations of the original songs. You may use it for private study, scholarship, research or language learning purposes only