» » »

Ronnie Milsap, I Wouldn't Have Missed It For The World Chords (ver.1)

Artists:  A B C D E F G H I J K L M N O P Q R S T U V W X Y Z # 

I Wouldn't Have Missed It For The World Chords (ver.1)

Ronnie Milsap Tabs
 Rating:
4/5 (4 votes)
I Wouldn't Have Missed It For The World lessons Tabs too difficult? Try these video lessons and learn fast
                
Key of G		  G       C
Intro solo: play 2x     |----------------|
            |-------0-----3--------------|
            |-0-0-2---0------------------|
            |-----------2----------------|
            |----------------------------|
            |----------------------------|
C			   G
Our paths may never cross again
Em			   G
Maybe my heart will never mend
Em
But I'm glad for all the good times
C
'Cause you brought me so much sunshine
Am			     D  C  Bm  D
Love was the best it's ever been


Chorus
G		 C		   Am7
I wouldn't have missed it for the world
		D	Bm	Em
Wouldn't have missed loving you girl
		G		C	`	D
You've made my whole life worth while, with your smile
G	   C		 Am7		D	Bm	Em
I wouldn't trade one memory, cause you mean too much to me
     G			C  D
Even though I lost you girl
 No chord			     G
I wouldn't have missed it for the world

Intro solo 2x

C				   G
They say that all good things must end
Em				  G
Love comes and goes just like the wind
Em
You've got your dreeams to follow
C
But if I had the chance tomorrow
Am			D  C  Bm  D
You know I'd do it all again.

chorus, solo:
  G     C	Am7     D	  Bm		Em		  G
|-----------------------5(6)(5)---10(11)(10)-7----------12-14-15-14(15)(14)-|
|---------5---------------------7--------------8-13(14)---------------------|
|-4-5-7-7---5-4-5---4-5-----------------------------------------------------|
|-----------------7---------------------------------------------------------|
|---------------------------------------------------------------------------|
|---------------------------------------------------------------------------|

        Am       D
|-------------------|
|-12-------12-------|
|----14-12----12----|
|----------------12-|
|-------------------|
|-------------------|
Oh I wouldn't trade one memory, cause you mean too much to me

Even though I lost you girl, I wouldn't have missed it for the world
            
Submit corrections

comments powered by Disqus
↑ Back to top | Ronnie Milsap Chords for I Wouldn't Have Missed It For The World. Lyrics for acoustic guitar and electric guitar. Tablatures and chords are parodies/interpretations of the original songs. You may use it for private study, scholarship, research or language learning purposes only