>
 >
Ngiti 1

Ngiti 1 Guitar Tabs

Ronnie Liang - Ngiti 1 chords, tabs, tablatures, lyrics

Guitar lessons | Add/correct | Request | Top 50 tabs Artists:  A B C D E F G H I J K L M N O P Q R S T U V W X Y Z 0-9

Ngiti 1 Guitar Tabs – Ronnie Liang

CD, Sheet music, Poster

Do you like Ngiti 1? Share with your friends now
ChordsChords v2Chords v3Chords v4Chords v5Chords v6TabsTabs v2Ukulele
I dedicate this song 2 ms.KeYti..luvyah..hay susuko n ata ako..wahahaha.
I want u to know even u dont luv me as a alam muna...k lng.....
mkita ko lng ang matamis mong ngiti..naks..



INTRO 1
e|------------------12----------------12--9-----------------12--10--10-9-10-9-------------12-10--9--|
B|----9/10--12--10-------10---12---10---------10---12--10--------------------10-10/12-10---------10-|
G|--------------------------------------------------------------------------------------------------|
D|--------------------------------------------------------------------------------------------------|
A|--------------------------------------------------------------------------------------------------|
E|--------------------------------------------------------------------------------------------------|


Verse 1:
   G         
Minamasdan Kita
      D
Nang hindi mo alam
Em                        C
Pinapangarap kong ikaw ay akin
      G                      D
Mapupulang labi at Matingkad mong ngiti
Em                  C
Umaabot hanggang sa langit

F                    G              F                          D
Huwag ka lang titingin sa akin at baka matunaw ang puso kong sabik.

Chorus 1:

nilagyan q n p0 ng lyrics para msaya..hehe

e|------------------12----------------12--9--------------|
B|----9/10---12--10-------10---12---10-------------------|
G|-------------------------------------------------------|
D|----sa---iyong-ngiti---akoy--nhuhumaling---------------|
A|-------------------------------------------------------|
E|-------------------------------------------------------|

continue
e|---------------12--10--10-9-10-9-------------12-10--9--|
B|--10---12--10--------------------10-10/12-10---------10|
G|-------------------------------------------------------|
D|--at---sa--tuwing--ikaw-ay-gagalaw-mundo-koy--tumitigil|
A|-------------------------------------------------------|
E|-------------------------------------------------------|

continue
e|------------------12----------------12--9--------------|
B|----9/10---12--10-------10---12---10-------------------|
G|-------------------------------------------------------|
D|----ang--pangalan-mo----sinisigaw---ng--puso-----------|
A|-------------------------------------------------------|
E|-------------------------------------------------------|

continue
e|---------------12---10--9----------9--10--12-----------|
B|--10-12--10---------------10--12--------------10--12---|
G|-------------------------------------------------------|
D|--sana---ay----mapansin-mo-rin-ang-lihim-kong-pagtingin|
A|-------------------------------------------------------|
E|-------------------------------------------------------|

Verse 2:

            G        D
Minamahal kita ng di mo alam
Em                  C
Huwag ka sanang magagalit
           G              D
Tinamaan yata talaga ang aking puso
Em                    C   
Na dati ay akala ko’y manhid.

F                  G
Hindi pa rin makalapit
      F                       D
Inuunahan ng kaba sa aking dibdib

repeat lng po..d same as chorus 1

Chorus 2:
           G              D
Sa iyong ngiti ako’y nahuhumaling
        Em              
At sa tuwing ikaw ay lalapit
      C
Ang Mundo ko’y tumitigil
              G                      D 
Para lang sa iyo ang awit ng aking puso
Em                      C                 D
Sana’y mapansin mo rin ang lihim kong pagtingin.

Repeat chorus I
adlib

 G
sa iyong ngiti…



paxanxa n koy..la pa q ipod..nd mxado nkuha...hehe..

pki rate din..ha..ty...





Comments


Popular Ronnie Liang tabs & chords
Ang Aking Awitin Chords
Gusto Kita Chords
Ikaw Chords
Ngiti Chords
Ngiti 1 Chords
Ngiti 3 Chords
Ngiti 4 Chords
Ang Aking Awitin Ukulele
Ikaw Ukulele
Ngiti Ukulele


Song lyrics



↑ Back to top | Tablatures and chords are parodies/interpretations of the original songs. You may use it for private study, scholarship, research or language learning purposes only
© 2014 AZChords.com Contact us | Privacy policy | DMCA | Add/correct tabs | Request tabs | Top 50 tabs