» » »

We Want Gore!! Tabs (ver.1)

Artists:  A B C D E F G H I J K L M N O P Q R S T U V W X Y Z # 

We Want Gore!! Tabs (ver.1)

Rompeprop
Rating:
0/5 (0 votes)

Hard to play? Try these video lessons and learn fast.
                Band:  Rompeprop





.  - palm mute           /  - slide up to
\  - slide down to       ~  - vibrato
h  - hammer on           b  - Bend
p  - pull off            Suffixes for bend
t  - tap                 f  - full bend    h - half bend
ph - pinched harmonic    q  - quarter bend t - tap bend
*  - see comment         ^  - Hold bend    r release bend
x  - Stuccatto           ~  - vibrato bend
,  - slight palm mute    () - ghost note, sustained note
"  - tremolo note        <> - Trill

Tuning B E A D F# B

Riff 1
|-----------|--------------------------------------------|
|-----------|--------------------------------------------|
|-----------|--------------------------------------------| x3
|-----------|--77-7------77-7------77-7------------------|
|--555-777--|--55-5-5555-55-5-5555-55-5-5555--555-777----|
|--333-555--|-------3333------3333------3333--333-555----|

Riff 2a
|---------------------------------------------|
|---------------------------------------------|
|---------------------------------------------| x2
|--77-7-------77-7-------77-7-----------------|
|--55-5-555---55-5-555---55-5-555---555-587---|
|-------333--------333--------333---333-365---|

Riff 2b                            [1]         [2]
|---------------------------------|----------|---------|
|---------------------------------|----------|---------|
|---------------------------------|----------|---------| x2
|---------------------------------|----------|---------|
|--5555------5555------5555-------|-555-587--|-555-777-|
|-------3333------3333------3333--|-333-365--|-333-555-|

Riffc                               [1]            [2]
|----------------------------------|-------------|-----------|
|----------------------------------|-------------|-----------|
|----------------------------------|-------------|-----------| x2
|--77-7-------77-7-------77-7------|-------------|-----------|
|--55-5-5553--55-5-5555--55-5-5555-|-5555-5-8-7--|-555-587---|
|-------3333-------3333-------3333-|-3333-3-6-5--|-333-365---|
        ....       ....       ....   ....

Riff 1 (only x2)

Riff 3
|----------------------------------|
|----------------------------------|
|----------------------------------| x2
|----------------------------------|
|--5p2-2-2-2-2-2-2-2-4---3---------|
|--3p0-0-0-0-0-0-0-0-2-0-1-0-------|
       . . . . . . . . . . .

Riff 4
|--------------------|
|--------------------|
|--------------------| x4
|--------------------|
|--6---2---3---5-----|
|--4-0-0-0-1-0-3-0---|
   . . . . . . . .

Riff 3
Riff 4
Riff 3
Riff 4
Then I think...
Riff 3 (??)
Riff 4 (??)

Riff 5       *=10
|------------------------------------------|
|--**-*------**-*------**-*----------------|
|--77-7-7777-77-7-7777-77-7-7777-----------|
|-------5555------5555------5555-----------|
|---------------------------------555-777--|
|---------------------------------333-555--|

Riff 1 (only 1X)

END
            
Hard to play? Try these video lessons and learn fast. | Correct




comments powered by Disqus
↑ Back to top | Tablatures and chords are parodies/interpretations of the original songs. You may use it for private study, scholarship, research or language learning purposes only