» » »

Rompeprop, The Erected Underwater Necro Clitstomper Tabs (ver.1)

Artists:  A B C D E F G H I J K L M N O P Q R S T U V W X Y Z # 

The Erected Underwater Necro Clitstomper Tabs (ver.1)

Rompeprop Tabs
 Rating:
4.2/5 (5 votes)
The Erected Underwater Necro Clitstomper lessons Tabs too difficult? Try these video lessons and learn fast
1
                Rompeprop
Menstrual Stomphulk

Copyright (c)  BIZARRE LEPROUS PRODUCTIONS 2002
Version 1.0 - 25.9.2009




.  - palm mute           /  - slide up to
\  - slide down to       ~  - vibrato
h  - hammer on           b  - Bend
p  - pull off            Suffixes for bend
t  - tap                 f  - full bend    h - half bend
ph - pinched harmonic    q  - quarter bend t - tap bend
*  - see comment         ^  - Hold bend    r release bend
x  - Stuccatto           ~  - vibrato bend
,  - slight palm mute    () - ghost note, sustained note
"  - tremolo note        <> - Trill

Tuning is B standard

Riff A x4
|----------------------------------|
|----------------------------------|
|----------------------------------|
|----------------------------------|
|-9-7---7-9-7---7-9-7---7-5-5-5-5--|
|-7-5---5-7-5---5-7-5---5-3-3-3-3--|

Riff B x2
|----------------------------------|
|----------------------------------|
|----------------------------------|
|----------------------------------|
|-5-3---3-5-3---3-5-3---3-2-2-2-2--|
|-3-1---1-3-1---1-3-1---1-0-0-0-0--|

Bass Break
Riff B x1
Riff A x2

Riff C x5
|----------------------------------|
|----------------------------------|
|----------------------------------|
|----------------------------------|
|-3-3-4-0-0-0-3-3-3-3-4-0-0-0-0-0--|
|-3-3-4-0-0-0-3-3-3-3-4-0-0-0-0-0--|
  . . . . . . . . . . . . . . . .

Riff B x2
Riff C x2
Riff B x2
Riff C x2

Riff D1 x4            ||Riff D2 x4
|---------------------||------------------------------------------|
|---------------------||------------------------------------------|
|---------------------||------------------------------------------|
|---------------------||------------------------------------------|
|---------------------||------------------------------------------|
|-3333-4444-1111-1111-||-3333-4444-1111-3333-3333-4444-1111-1111--|

Riff B x2
Riff A x4
Riff B x2
Riff C x3

End x1
|--------|
|--------|
|--------|
|--------|
|-2------|
|-0------|


END
            
Submit corrections

comments powered by Disqus
↑ Back to top | Rompeprop Tabs for The Erected Underwater Necro Clitstomper. Lyrics for acoustic guitar and electric guitar. 1 Tablatures and chords are parodies/interpretations of the original songs. You may use it for private study, scholarship, research or language learning purposes only