» » »

R.O.M.P.E.P.R.O.P Tabs (ver.1)

Artists:  A B C D E F G H I J K L M N O P Q R S T U V W X Y Z # 

R.O.M.P.E.P.R.O.P Tabs (ver.1)

Rompeprop
Rating:
0/5 (0 votes)

Hard to play? Try these video lessons and learn fast.
                Band:  (ROMPEPROP)

Copyright (c)  (BIZARRE LEPROUS PRODUCTIONS) (2003)


.  - palm mute          p  - pull off    ~  - vibrato   ()  - sustained note


Tuning: B STANDARD
                  x16                 x8
|------------------|-------------------|------------------------------------|
|.----------------.|.-----------------.|------------------------------------|
|------------------|-------------------|------------------------------------|
|------------------|--3-2-----2-1------|-.-.-.-.-.-.------------------------|
|.-3-2-----2-1----.|.-----4-0-----3-0-.|-2-2-2-2-2-2-2p1----2---------------|
|------4-0-----3-0-|-------------------|-0-0-0-0-0-0-----1~-0-0-0-0-0-0-0-0-|
   . . . . . . . .    . . . . . . . .    . . . . . .          . . . . . . .

------------------------------------------------------------------------|
------------------------------------------------------------------------|
------------------------------------------------------------------------|
------------------------------------------------------------------------|
---------6p5-6--2-----------------------2p1-----2-----------------------|
-0-0-0-0--------0-0-0-0-0-0-0-0-0-0-0-0-----1~--0-0-0-0-0-0-0-0-0-0-0-0-|
 . . . .          . . . . . . . . . . .           . . . . . . . . . . .

--------|----------------------------------------------------------|
--------|.---------------------------------------------------------|
--------|----------------------------------------------------------|
--------|----------------------------------------------------------|
-6p5-6--|.-22-2-22-2-22-2-22-2-22-2-22-2-2p1---22-2-22-2-22-2-22-2-|
--------|--00-0-00-0-00-0-00-0-00-0-00-0-----1~00-0-00-0-00-0-00-0-|
           .. . .. . .. . .. . .. . .. .       .. . .. . .. . .. .
                 x2                 x4                           x16
------------------|------------------|---------|-------------------|
-----------------.|.----------------.|---------|.-----------------.|
------------------|------------------|---------|-------------------|
------------------|------------------|-.-.-.-.-|-------------------|
-22-2-22-2-6p5-6-.|.-3-2-----2-1----.|-2-2-2-2-|.-3"------2"------.|
-00-0-00-0--------|------4-0-----3-0-|-0-0-0-0-|----4"1"0"--4"1"0"-|
 .. . .. .           . . . . . . . .   . . . .
                  x2                  X4                  x2              x4
|------------------|-------------------|-------------------|---------------|
|.----------------.|.-----------------.|.-----------------.|.-------------.|
|------------------|-------------------|-------------------|---------------|
|-3"----3"4"----3"-|-------------------|-3"----3"4"----3"--|---------------|
|.--4"5"----4"5"--.|.-3-----2-3-----2-.|.--4"5"----4"5"---.|.3-----2-3----2|
|------------------|----3-4-----3-4----|-------------------|---3-4-----3-4-|
                      . . . . . . . .                        . . . . . . ..
                                 x2
|---------------------------------|---------------------------------------|
|.-------------------------------.|.--------------------------------------|
|---------------------------------|---------------------------------------|
|---------------------------------|---------------------------------------|
|.-2-(2)-2-(2)-2-2-2-2-2-2-2-2-2-.|.-22-2-22-2-22-2-22-2-22-2-22-2-2p1----|
|--0-(0)-0-(0)-0-0-0-0-0-0-0-0-0--|--00-0-00-0-00-0-00-0-00-0-00-0-----1~-|
   .  .  .  .  . . . . . . . . .     .. . .. . .. . .. . .. . .. .
                                     x3                  x16
--------------------------------------|-------------------|
-------------------------------------.|.-----------------.|
--------------------------------------|-------------------|
--------------------------------------|-------------------|
-22-2-22-2-22-2-22-2-22-2-22-2-6p5-6-.|.-3-2-----2-1-----.|
-00-0-00-0-00-0-00-0-00-0-00-0--------|------4-0-----3-0--|
 .. . .. . .. . .. . .. . .. .           . . . . . . . .
                                                                            x2
|----------------------------------------------------------------------------|
|.--------------------------------------------------------------------------.|
|----------------------------------------------------------------------------|
|----------------------------------------------------------------------------|
|.-22-2-22-2-22-2-22-2-22-2-22-2-2p1----22-2-22-2-22-2-22-2-22-2-22-2-6p5-6-.|
|--00-0-00-0-00-0-00-0-00-0-00-0-----1~-00-0-00-0-00-0-00-0-00-0-00-0--------|
   .. . .. . .. . .. . .. . .. .        .. . .. . .. . .. . .. . .. .
                              x8                 x8                  x8
|------------------------------|------------------|-------------------|
|.----------------------------.|.----------------.|.-----------------.|
|------------------------------|------------------|-------------------|
|------------------------------|------------------|-------------------|
|.-2--2--2--2--2--2--2-22-2-2-.|.-3-2-----2-1----.|.-4-----2-3-----3-.|
|--0--0--0--0--0--0--0-00-0-0--|------4-0-----3-0-|----5-4-----4-3----|
   .  .  .  .  .  .  . .. . .     . . . . . . . .    . . . . . . . .

-----------------------------------------|
-----------------------------------------|
-----------------------------------------|
-----------------------------------------|
-2-(2)-2-(2)-2-2-2-2-2-2-2-2---2-rest-2--|
-0-(0)-0-(0)-0-0-0-0-0-0-0-0---0------0--|
            
Hard to play? Try these video lessons and learn fast. | Correct




comments powered by Disqus
↑ Back to top | Tablatures and chords are parodies/interpretations of the original songs. You may use it for private study, scholarship, research or language learning purposes only