» » »

Rompeprop, Embryoyo Tabs (ver.1)

Artists:  A B C D E F G H I J K L M N O P Q R S T U V W X Y Z # 

Embryoyo Tabs (ver.1)

Rompeprop Tabs
Rating:
5/5 (1 vote)
Embryoyo lessons Tabs too difficult? Try these video lessons and learn fast
                Band: Rompeprop
Record Label: Bizarre Leprous Production
Tuning: G# C# F# B D# G#
(you can tune up higher for this song but i figured it out in this tuning)

------------------|
------------------|
------------------|
-8-~-~-8-~-~-#-~--|
-6-8-8-6-8-8-9-8--|
------------------|X21
 pm.............
~ = 10
# = 11

--------------|
--------------|
--------------|
-~-~-~~~~-----|
-8-8-8888-----|
--------------|
 pm......

-------------------------|
-------------------------|
-------------------------|
-----------888888888888--|
-119119119-666666666666--|
-------------------------|X12
11s and 9s trem picked really quick changes

------------------|
------------------|
------------------|
-8-~-~-8-~-~-#-~--|
-6-8-8-6-8-8-9-8--|
------------------|X9
 pm.............

now the tempo gets faster
----------------------------------|
----------------------------------|
----------------------------------|
-8-~-~-8-~-8-~---8-~-~-8-~-~-#-~--|
-6-8-8-6-8-6-8---6-8-8-6-8-8-9-8--|
----------------------------------|X5

-------------------------|
-------------------------|
-------------------------|
-----------888888888888--|
-119119119-666666666666--|
-------------------------|X12
11s and 9s trem picked really quick changes

---------------------------|
---------------------------|
---------------------------|
---------------------------|
-5-5--5-9-9--9-6-6--6-6-6--|
-3-3--3-7-7--7-4-4--4-4-4--|X4

bass part

---------|
---------|
---------|
---------|
-5-5-5-5-|
-3-3-3-3-|
 pm. .

-------|
-------|
-------|
-------|
-13\\\-
-11\\\-

---------|
---------|
---------|
---------|
-5-5-5-5-|
-3-3-3-3-|
 pm. .

---------------------------|
---------------------------|
---------------------------|
---------------------------|
-5-5--5-9-9--9-6-6--6-6-6--|
-3-3--3-7-7--7-4-4--4-4-4--|X4

----------------------|
----------------------|
----------------------|
-5-5--5-9-9--9-12-12--|
-3-3--3-7-7--7-10-10--|
----------------------|X2


---------------------------|
---------------------------|
---------------------------|
---------------------------|
-5-5--5-9-9--9-6-6--6-6-6--|
-3-3--3-7-7--7-4-4--4-4-4--|X5

--------------------------|
--------------------------|
--------------------------|
--------------------------|
-5-5--5-9-9--9-6-6-6-6-5--|
-3-3--3-7-7--7-4-4-4-4-3--|X5
               pm. . .
            
Submit corrections

comments powered by Disqus
↑ Back to top | Rompeprop Tabs for Embryoyo. Lyrics for acoustic guitar and electric guitar. Tablatures and chords are parodies/interpretations of the original songs. You may use it for private study, scholarship, research or language learning purposes only