>
 >
As She Licks My Only Ball..

As She Licks My Only Ball.. Guitar Tabs

Rompeprop - As She Licks My Only Ball.. chords, tabs, tablatures, lyrics

Guitar lessons | Add/correct | Request | Top 50 tabs Artists:  A B C D E F G H I J K L M N O P Q R S T U V W X Y Z 0-9

As She Licks My Only Ball.. Guitar Tabs – Rompeprop

CD, Sheet music, Poster

Do you like As She Licks My Only Ball..? Share with your friends now
Tabs
Band: Rompeprop 

Copyright (c) Bizarre Leprous Records, 2004 

Code: 
. - palm mute           / - slide up to 
\ - slide down to       x  Staccato 
h - hammer on           p - pull off 
, - slight palm mute    () - ghost note, sustained note 
" - tremolo note        <> - Trill 
L  left channel only   R  right channel only 
* - see comment 

Suffixes for bend 
f - full bend       h - half bend 
q - quarter bend    t - tap bend 
^ - Hold bend       r - release bend 
~ - vibrato bend 

Suffixes for harmonic 
ph - pinched harmonic   n  natural/artificial harmonic 

Tuning G C F A# D G 

Riff 1 (1:03) play twice 
|---|--------------------------------------------------| 
|---|--------------------------------------------------| 
|---|--------------------------------------------------| 
|---|-9--9-9-9-9-9-12-11--------9--9-9-9-9-9-12-11-----| 
|-\-|-7--7-7-7-7-7-10-9--12-11--7--7-7-7-7-7-10-9--12--| 
|---|--------------------10-9----------------------10--| 
         . . . . .                 . . . . . 

Riff 2 (1:14) play twice 
|-----------------------------------------------------------------| 
|-----------------------------------------------------------------| 
|-----------------------------------------------------------------| 
|---------------------------------------------------------6---7---| 
|-9-9-9-9-9-9-9-9-9-9-9-9-9-9-9-9-9-9-9-9-9-9-9-9-9-9-9-9-4-9-5-9-| 
|-7-7-7-7-7-7-7-7-7-7-7-7-7-7-7-7-7-7-7-7-7-7-7-7-7-7-7-7---7---7-| 
    . . . . . . .   . . . . . . .   . . . . . . .   . . .   .   . 

Riff 1 x 1 (1:24) 
Riff 2 x 1 (1:34) 
Riff 1 x 1 (1:44) 
Riff 2 x 1 (1:54) 
Riff 1 x 1 (2:05) 

Riff 3 (2:15) play 4 times 
|---------------------------------| 
|---------------------------------| 
|---------------------------------| 
|---------3-3-3-3-----------------| 
|-6-6-6-6-1-1-1-1-3-3-3-3-2-2-2-2-| 
|-4-4-4-4---------1-1-1-1-0-0-0-0-| 
  . . . . . . . . . . . . . . . . 

Fill 1 (2:25) play 4 times 
|-----------------------------| 
|-----------------------------| 
|-----------------------------| 
|--------3-3-3----------------| 
|-6-6-6--1-1-1--3-3-3--2-2-2--| 
|-4-4-4---------1-1-1--0-0-0--| 
  . . .  . . .  . . .  . . . 

Riff 3 x 1 (2:27) 

Riff 4 (2:37) play 6 times 
            [1  4, 6]                    [5] 
|---------------------|----------------------| 
|---------------------|----------------------| 
|---------------------|----------------------| 
|-------6\5---9\8-----|-------6\5---9-7-5----| 
|-7-9-7-4\3-7-7\6-5-7-|-7-9-7-4\3-7-7-5-3-7--| 
|-5-7-5-----5-----3-5-|-5-7-5-----5-------5--| 
                                    . . . 
  
Riff 1 x 3 (2:57) 
End





Comments


Popular Rompeprop tabs & chords
Dislocated Purple Stoma Tabs
Embryoyo Tabs
Pelikanelul Tabs
Pikzwarteflikkerkak Tabs
R.O.M.P.E.P.R.O.P Tabs
The Erected Underwater Necro Clitstomper Tabs
Vulcanic Eskimo Tabs
We Want Gore!! Tabs
Zuilzalf Tabs


Song lyrics



↑ Back to top | Tablatures and chords are parodies/interpretations of the original songs. You may use it for private study, scholarship, research or language learning purposes only
© 2014 AZChords.com Contact us | Privacy policy | DMCA | Add/correct tabs | Request tabs | Top 50 tabs