» » »

Rollins Band, Starve Tabs (ver.1)

Artists:  A B C D E F G H I J K L M N O P Q R S T U V W X Y Z # 

Starve Tabs (ver.1)

Rollins Band Tabs
 Rating:
4/5 (4 votes)
Starve lessons Tabs too difficult? Try these video lessons and learn fast
                starve


Rollins Band





    intro    repeat 
e:-------------------|
B:-------------------|
G:-------------------|
D:-------------------|
A:---------------2-2-|
E:-0--3-3-3-3-4--0-0-|

e:-5-5-5-5-5-5-5-5-5-5-5-5-5-5-5-5-5-5-5-5-5-5-5-5--7--5-5-5-5-5-5-5-5-5-5-5-5--4-5-4-5-4-|
B:-3-3-3-3-3-3-3-3-3-3-3-3-3-3-3-3-3-3-3-3-3-3-3-3--5--3-3-3-3-3-3-3-3-3-3-3-3--2-3-2-3-2-|
G:----------------------------------------------------------------------------------------|
D:----------------------------------------------------------------------------------------|
A:----------------------------------------------------------------------------------------|
E:----------------------------------------------------------------------------------------|

e:-5-5-5-5-5-5-5-5-5-5-5-5-5-5-5-5-5-5-5-5-5-5-5-5--7--5-5-5-5-5-5-5-5-5-5-5-5--4-4-7-7-7-7|
B:-3-3-3-3-3-3-3-3-3-3-3-3-3-3-3-3-3-3-3-3-3-3-3-3--5--3-3-3-3-3-3-3-3-3-3-3-3--2-2-5-5-5-5|
G:-----------------------------------------------------------------------------------------|
D:-----------------------------------------------------------------------------------------|
A:-----------------------------------------------------------------------------------------|
E:-----------------------------------------------------------------------------------------|

        repeat 
e:-------------------|
B:-------------------|
G:-------------------|
D:-------------------|
A:---------------2-2-|
E:-0--3-3-3-3-4--0-0-|


e:-5-5-5-5-5-5-5-5-5-5-5-5-5-5-5-5-5-5-5-5-5-5-5-5--7--5-5-5-5-5-5-5-5-5-5-5-5--4-5-4-5-4-|
B:-3-3-3-3-3-3-3-3-3-3-3-3-3-3-3-3-3-3-3-3-3-3-3-3--5--3-3-3-3-3-3-3-3-3-3-3-3--2-3-2-3-2-|
G:----------------------------------------------------------------------------------------|
D:----------------------------------------------------------------------------------------|
A:----------------------------------------------------------------------------------------|
E:----------------------------------------------------------------------------------------|

e:-5-5-5-5-5-5-5-5-5-5-5-5-5-5-5-5-5-5-5-5-5-5-5-5--7--5-5-5-5-5-5-5-5-5-5-5-5--4-4-7-7-7-7|
B:-3-3-3-3-3-3-3-3-3-3-3-3-3-3-3-3-3-3-3-3-3-3-3-3--5--3-3-3-3-3-3-3-3-3-3-3-3--2-2-5-5-5-5|
G:-----------------------------------------------------------------------------------------|
D:-----------------------------------------------------------------------------------------|
A:-----------------------------------------------------------------------------------------|
E:-----------------------------------------------------------------------------------------|

        repeat 
e:-------------------|
B:-------------------|
G:-------------------|
D:-------------------|
A:-------------------|
E:-0--3-3-3-3-4--0-0-|


e:-5-5-5-5-5-5-5-5-5-5-5-5-5-5-5-5-5-5-5-5-5-5-5-5--7--5-5-5-5-5-5-5-5-5-5-5-5--4-5-4-5-4-|
B:-3-3-3-3-3-3-3-3-3-3-3-3-3-3-3-3-3-3-3-3-3-3-3-3--5--3-3-3-3-3-3-3-3-3-3-3-3--2-3-2-3-2-|
G:----------------------------------------------------------------------------------------|
D:----------------------------------------------------------------------------------------|
A:----------------------------------------------------------------------------------------|
E:----------------------------------------------------------------------------------------|

e:-5-5-5-5-5-5-5-5-5-5-5-5-5-5-5-5-5-5-5-5-5-5-5-5--7--5-5-5-5-5-5-5-5-5-5-5-5--4-4-7-7-7-7|
B:-3-3-3-3-3-3-3-3-3-3-3-3-3-3-3-3-3-3-3-3-3-3-3-3--5--3-3-3-3-3-3-3-3-3-3-3-3--2-2-5-5-5-5|
G:-----------------------------------------------------------------------------------------|
D:-----------------------------------------------------------------------------------------|
A:-----------------------------------------------------------------------------------------|
E:-----------------------------------------------------------------------------------------|

e:---------------------------------------------------------------------------------|
B:---------------------------------------------------------------------------------|
G:---------------------------------------------------------------------------------|
D:---------------------------------------------------------------------------------|
A:------------------------------------------------5-5--5-5-5-5--5-5--5-5-5-5--5-5--|
E:-0-0--0-0--0-0-0-0--0-0--0-0-0-0--0-0--0-0-0-0--0-0--0-0-0-0--0-0--0-0-0-0--0-0--|

:-----------------------------------------------------------------------------------------|
:-----------------------------------------------------------------------------------------|
:-----------------------------------------------------------------------------------------|
:-----------------------------------------------------------------------------------------|
:-5-5--5-5-5-5--5-5--5-5-5-5--5-5--5-5-5-5--6-6--6-6-6-6--6-6--6-6-6-6--6-6--6-6-6-6--6-6-|
:-0-0--0-0-0-0--0-0--0-0-0-0--0-0--0-0-0-0--0-0--0-0-0-0--0-0--0-0-0-0--0-0--0-0-0-0--0-0-|


     repeat 
e:-------------------|
B:-------------------|
G:-------------------|
D:-------------------|
A:---------------2-2-|
E:-0--3-3-3-3-4--0-0-|


e:-5-5-5-5-5-5-5-5-5-5-5-5-5-5-5-5-5-5-5-5-5-5-5-5--7--5-5-5-5-5-5-5-5-5-5-5-5--4-5-4-5-4-|
B:-3-3-3-3-3-3-3-3-3-3-3-3-3-3-3-3-3-3-3-3-3-3-3-3--5--3-3-3-3-3-3-3-3-3-3-3-3--2-3-2-3-2-|
G:----------------------------------------------------------------------------------------|
D:----------------------------------------------------------------------------------------|
A:----------------------------------------------------------------------------------------|
E:----------------------------------------------------------------------------------------|

e:-5-5-5-5-5-5-5-5-5-5-5-5-5-5-5-5-5-5-5-5-5-5-5-5--7--5-5-5-5-5-5-5-5-5-5-5-5--4-4-7-7-7-7|
B:-3-3-3-3-3-3-3-3-3-3-3-3-3-3-3-3-3-3-3-3-3-3-3-3--5--3-3-3-3-3-3-3-3-3-3-3-3--2-2-5-5-5-5|
G:-----------------------------------------------------------------------------------------|
D:-----------------------------------------------------------------------------------------|
A:-----------------------------------------------------------------------------------------|
E:-----------------------------------------------------------------------------------------|

e:---------------------------------------------------------------------------------|
B:---------------------------------------------------------------------------------|
G:---------------------------------------------------------------------------------|
D:---------------------------------------------------------------------------------|
A:---------------------------------------------------------------------------------|
E:-0-0--0-0--0-0-0-0--0-0--0-0-0-0--0-0--0-0-0-0--0-0--0-0-0-0--0-0--0-0-0-0--0-0--|

:-----------------------------------------------------------------------------------------|
:-----------------------------------------------------------------------------------------|
:-----------------------------------------------------------------------------------------|
:-----------------------------------------------------------------------------------------|
:-5-5--5-5-5-5--5-5--5-5-5-5--5-5--5-5-5-5--6-6--6-6-6-6--6-6--6-6-6-6--6-6--6-6-6-6--6-6-|
:-0-0--0-0-0-0--0-0--0-0-0-0--0-0--0-0-0-0--0-0--0-0-0-0--0-0--0-0-0-0--0-0--0-0-0-0--0-0-|

:---------------------------------------------------------------------------------------|
:---------------------------------------------------------------------------------------|
:---------------------------------------------------------------------------------------|
:---------------------------------------------------------------------------------------|
:-7-7--7-7-7-7--7-7--7-7-7-7--7-7--7-7-7-7--7-7--7-7-7-7--7-7--7-7-7-7--7-7--7-7-7-7--7-|
:-0-0--0-0-0-0--0-0--0-0-0-0--0-0--0-0-0-0--0-0--0-0-0-0--0-0--0-0-0-0--0-0--0-0-0-0--0-|
            
Submit corrections

comments powered by Disqus
↑ Back to top | Rollins Band Tabs for Starve. Lyrics for acoustic guitar and electric guitar. Tablatures and chords are parodies/interpretations of the original songs. You may use it for private study, scholarship, research or language learning purposes only