» » »

Rollins Band, Burned Beyond Recognition Tabs (ver.1)

Artists:  A B C D E F G H I J K L M N O P Q R S T U V W X Y Z # 

Burned Beyond Recognition Tabs (ver.1)

Rollins Band Tabs
Rating:
5/5 (1 vote)
Burned Beyond Recognition lessons Tabs too difficult? Try these video lessons and learn fast
                ROLLINS BAND

" Burned beyond recognition "

year: 1988

translated by Michiel Hautus, The Netherlands, jan. 02


explanation signs:

~	= vibration
\	= slide down
/	= slide up
x	= percussionstrike
R	= rest
(5)	= oultet tone or chord out of previous bar (do not strike)


INTRO

E -----------------------|
B -----------------------|
G -----------------------|
D -5---------------------|
A -4---------------------|
E -----------------------|

RIFF A

note: mute all G5 chords slightly

E -----------|-----------|-----------|-----------|
B -----------|-----------|-----------|-----------|
G -----------|-----------|-----------|-6\---3----|
D -----5~-\--|----6------|-----5~-\--|-5\---2----|
A -5-5-5~-\--|------5----|-5-5-5~-\--|-----------|
E -3-3-------|-/6-----6--|-3-3-------|-----------|

E -----------|-----------|-----------|-----------|
B -----------|-----------|-----------|-----------|
G -----------|-----------|--------3--|-(3)-------|
D -----5~-\--|----6------|-----5--2--|-(2)-------|
A -5-5-5~-\--|------5----|-5-5-5--1--|-(1)-------|
E -3-3-------|-/6-----6--|-3-3-------|-----------|

RIFF B (with variations at the 4th bar)

note: mute all notes on low E-string

	1.2.3. time

E -----------------------------------------------|
B -----------------------------------------------|
G -----------------------------------------------|
D -----------------------------------------------|
A -----------------------------------------4-5-6-|
E -5-4-3-5-4-3-5-4-3-5-4-3-5-4-3-5-4-3-5-4-------|

	4. time

E -----------------------------------------------|
B -----------------------------------------------|
G -----------------------------------------------|
D -7-6-5-7-6-5-7-6-5-7-6-5-----------------------|
A -----------------------------------------4-5-6-|
E -------------------------5-4-3-5-4-3-5-R-------|

RIFF C

E -------------------------|
B -------------------------|
G ---3-----3-----3-----3---|
D ---4-----4-----4-----4---|
A -2-4---2-4---2-4---5-4---|
E -0-2---0-2---0-2---3-2---|

RIFF A2 (bass stays in G)

E -----------|-----------|-----------|-----------|
B -----------|-----------|-----------|-----------|
G -3-3-3\----|----1------|-3-3-3\----|----1------|
D -2-2-2\----|------0----|-2-2-2\----|------0----|
A -----------|--1-----1--|-----------|--1-----1--|
E -----------|-----------|-----------|-----------|

E -----------|-----------|-----------|-----------|
B -----------|-----------|-----------|-----------|
G -3-3/-6\---|--3/---6\--|--3/---6\--|--3/---6\--|
D -2-2/-5\---|--2/---5\--|--2/---5\--|--2/---5\--|
A -----------|-----------|-----------|-----------|
E -----------|-----------|-----------|-----------|

RIFF A3

E -----------|-----------|-----------|------------------|
B -----------|-----------|-----------|-8-8-8-8--8-8-8---|
G -3-3-3-----|----4------|-3-3-3-----|-6-6-6-6--6-6-6-6-|
D -3-3-3-----|------3----|-3-3-3-----|-5-5-5-5--5-5-5-5-|
A -1-1-1/----|-/4-----4--|-1-1-1/----|------------------|
E -----------|-----------|-----------|------------------|

E -----------|-----------|-----------|------------------|
B -----------|-----------|--------8--|-(8)--------------|
G -3-3-3-----|----4------|-3-3----6--|-(6)--------------|
D -3-3-3-----|------3----|-3-3-x--5--|-(5)--------------|
A -1-1-1/----|-/4-----4--|-1-1-x-----|------------------|
E -----------|-----------|-----------|------------------|

END

E -----------------------------------------------|-------------|
B -----------------------------------------------|-------------|
G -----------------------------------------------|-----3-R-----|
D -----------------------------------------------|-----4-R-----|
A -----------------------------------------2-3-4-|-R-2-4-R-----|
E -3-2-1-3-2-1-3-2-1-3-2-1-3-2-1-3-2-1-3-R-------|---0-2-R-----|


More tabs (Samson, Rollins Band, Kiss, Paradise Lost,
Mot?rhead, The Exploited, Black Sabbath):
            
Submit corrections

comments powered by Disqus
↑ Back to top | Rollins Band Tabs for Burned Beyond Recognition. Lyrics for acoustic guitar and electric guitar. Tablatures and chords are parodies/interpretations of the original songs. You may use it for private study, scholarship, research or language learning purposes only